ISO-10303-21;
HEADER;
/* Generated by software containing ST-Developer
 * from STEP Tools, Inc. (www.steptools.com) 
 */

FILE_DESCRIPTION(
/* description */ (''),
/* implementation_level */ '2;1');

FILE_NAME(
/* name */ 
'Z:/Modular Solution/A-Profile System/Parts/30 Series/32-4590W-0/CAD/3
2-4590W-0.step',
/* time_stamp */ '2021-05-13T12:18:28-04:00',
/* author */ (''),
/* organization */ (''),
/* preprocessor_version */ 'ST-DEVELOPER v18.1',
/* originating_system */ 'Autodesk Translation Framework v10.6.0.1341',

/* authorisation */ '');

FILE_SCHEMA (('AUTOMOTIVE_DESIGN { 1 0 10303 214 3 1 1 }'));
ENDSEC;

DATA;
#10=MECHANICAL_DESIGN_GEOMETRIC_PRESENTATION_REPRESENTATION('',(#13),#491);
#11=SHAPE_REPRESENTATION_RELATIONSHIP('SRR','None',#498,#12);
#12=ADVANCED_BREP_SHAPE_REPRESENTATION('',(#14),#490);
#13=STYLED_ITEM('',(#508),#14);
#14=MANIFOLD_SOLID_BREP('Body1',#279);
#15=CYLINDRICAL_SURFACE('',#300,6.75);
#16=CYLINDRICAL_SURFACE('',#303,4.5);
#17=CYLINDRICAL_SURFACE('',#305,6.75);
#18=CYLINDRICAL_SURFACE('',#308,4.5);
#19=CYLINDRICAL_SURFACE('',#319,2.5);
#20=CYLINDRICAL_SURFACE('',#320,2.5);
#21=CYLINDRICAL_SURFACE('',#321,2.5);
#22=CYLINDRICAL_SURFACE('',#322,2.5);
#23=FACE_BOUND('',#46,.T.);
#24=FACE_BOUND('',#47,.T.);
#25=FACE_BOUND('',#57,.T.);
#26=FACE_BOUND('',#58,.T.);
#27=FACE_BOUND('',#64,.T.);
#28=FACE_BOUND('',#66,.T.);
#29=FACE_OUTER_BOUND('',#45,.T.);
#30=FACE_OUTER_BOUND('',#48,.T.);
#31=FACE_OUTER_BOUND('',#49,.T.);
#32=FACE_OUTER_BOUND('',#50,.T.);
#33=FACE_OUTER_BOUND('',#51,.T.);
#34=FACE_OUTER_BOUND('',#52,.T.);
#35=FACE_OUTER_BOUND('',#53,.T.);
#36=FACE_OUTER_BOUND('',#54,.T.);
#37=FACE_OUTER_BOUND('',#55,.T.);
#38=FACE_OUTER_BOUND('',#56,.T.);
#39=FACE_OUTER_BOUND('',#59,.T.);
#40=FACE_OUTER_BOUND('',#60,.T.);
#41=FACE_OUTER_BOUND('',#61,.T.);
#42=FACE_OUTER_BOUND('',#62,.T.);
#43=FACE_OUTER_BOUND('',#63,.T.);
#44=FACE_OUTER_BOUND('',#65,.T.);
#45=EDGE_LOOP('',(#183,#184,#185,#186,#187,#188,#189,#190));
#46=EDGE_LOOP('',(#191));
#47=EDGE_LOOP('',(#192));
#48=EDGE_LOOP('',(#193,#194,#195,#196));
#49=EDGE_LOOP('',(#197,#198,#199,#200));
#50=EDGE_LOOP('',(#201,#202,#203,#204));
#51=EDGE_LOOP('',(#205,#206,#207,#208));
#52=EDGE_LOOP('',(#209,#210,#211,#212));
#53=EDGE_LOOP('',(#213,#214,#215,#216));
#54=EDGE_LOOP('',(#217,#218,#219,#220));
#55=EDGE_LOOP('',(#221,#222,#223,#224));
#56=EDGE_LOOP('',(#225,#226,#227,#228,#229,#230,#231,#232));
#57=EDGE_LOOP('',(#233));
#58=EDGE_LOOP('',(#234));
#59=EDGE_LOOP('',(#235,#236,#237,#238));
#60=EDGE_LOOP('',(#239,#240,#241,#242));
#61=EDGE_LOOP('',(#243,#244,#245,#246));
#62=EDGE_LOOP('',(#247,#248,#249,#250));
#63=EDGE_LOOP('',(#251));
#64=EDGE_LOOP('',(#252));
#65=EDGE_LOOP('',(#253));
#66=EDGE_LOOP('',(#254));
#67=CIRCLE('',#294,2.5);
#68=CIRCLE('',#295,2.5);
#69=CIRCLE('',#296,2.5);
#70=CIRCLE('',#297,2.5);
#71=CIRCLE('',#298,4.5);
#72=CIRCLE('',#299,4.5);
#73=CIRCLE('',#301,6.75);
#74=CIRCLE('',#302,6.75);
#75=CIRCLE('',#304,4.5);
#76=CIRCLE('',#306,6.75);
#77=CIRCLE('',#307,6.75);
#78=CIRCLE('',#309,4.5);
#79=CIRCLE('',#315,2.5);
#80=CIRCLE('',#316,2.5);
#81=CIRCLE('',#317,2.5);
#82=CIRCLE('',#318,2.5);
#83=LINE('',#415,#103);
#84=LINE('',#419,#104);
#85=LINE('',#423,#105);
#86=LINE('',#427,#106);
#87=LINE('',#437,#107);
#88=LINE('',#441,#108);
#89=LINE('',#447,#109);
#90=LINE('',#451,#110);
#91=LINE('',#456,#111);
#92=LINE('',#457,#112);
#93=LINE('',#458,#113);
#94=LINE('',#461,#114);
#95=LINE('',#463,#115);
#96=LINE('',#464,#116);
#97=LINE('',#467,#117);
#98=LINE('',#469,#118);
#99=LINE('',#470,#119);
#100=LINE('',#473,#120);
#101=LINE('',#475,#121);
#102=LINE('',#476,#122);
#103=VECTOR('',#329,1000.);
#104=VECTOR('',#332,1000.);
#105=VECTOR('',#335,1000.);
#106=VECTOR('',#338,1000.);
#107=VECTOR('',#349,6.75);
#108=VECTOR('',#354,4.5);
#109=VECTOR('',#361,6.75);
#110=VECTOR('',#366,4.5);
#111=VECTOR('',#371,1000.);
#112=VECTOR('',#372,1000.);
#113=VECTOR('',#373,1000.);
#114=VECTOR('',#376,1000.);
#115=VECTOR('',#377,1000.);
#116=VECTOR('',#378,1000.);
#117=VECTOR('',#381,1000.);
#118=VECTOR('',#382,1000.);
#119=VECTOR('',#383,1000.);
#120=VECTOR('',#386,1000.);
#121=VECTOR('',#387,1000.);
#122=VECTOR('',#388,1000.);
#123=VERTEX_POINT('',#413);
#124=VERTEX_POINT('',#414);
#125=VERTEX_POINT('',#416);
#126=VERTEX_POINT('',#418);
#127=VERTEX_POINT('',#420);
#128=VERTEX_POINT('',#422);
#129=VERTEX_POINT('',#424);
#130=VERTEX_POINT('',#426);
#131=VERTEX_POINT('',#429);
#132=VERTEX_POINT('',#431);
#133=VERTEX_POINT('',#434);
#134=VERTEX_POINT('',#436);
#135=VERTEX_POINT('',#440);
#136=VERTEX_POINT('',#444);
#137=VERTEX_POINT('',#446);
#138=VERTEX_POINT('',#450);
#139=VERTEX_POINT('',#454);
#140=VERTEX_POINT('',#455);
#141=VERTEX_POINT('',#460);
#142=VERTEX_POINT('',#462);
#143=VERTEX_POINT('',#466);
#144=VERTEX_POINT('',#468);
#145=VERTEX_POINT('',#472);
#146=VERTEX_POINT('',#474);
#147=EDGE_CURVE('',#123,#124,#83,.T.);
#148=EDGE_CURVE('',#123,#125,#67,.T.);
#149=EDGE_CURVE('',#126,#125,#84,.T.);
#150=EDGE_CURVE('',#126,#127,#68,.T.);
#151=EDGE_CURVE('',#128,#127,#85,.T.);
#152=EDGE_CURVE('',#128,#129,#69,.T.);
#153=EDGE_CURVE('',#130,#129,#86,.T.);
#154=EDGE_CURVE('',#130,#124,#70,.T.);
#155=EDGE_CURVE('',#131,#131,#71,.T.);
#156=EDGE_CURVE('',#132,#132,#72,.T.);
#157=EDGE_CURVE('',#133,#133,#73,.T.);
#158=EDGE_CURVE('',#133,#134,#87,.T.);
#159=EDGE_CURVE('',#134,#134,#74,.T.);
#160=EDGE_CURVE('',#132,#135,#88,.T.);
#161=EDGE_CURVE('',#135,#135,#75,.T.);
#162=EDGE_CURVE('',#136,#136,#76,.T.);
#163=EDGE_CURVE('',#136,#137,#89,.T.);
#164=EDGE_CURVE('',#137,#137,#77,.T.);
#165=EDGE_CURVE('',#131,#138,#90,.T.);
#166=EDGE_CURVE('',#138,#138,#78,.T.);
#167=EDGE_CURVE('',#139,#140,#91,.T.);
#168=EDGE_CURVE('',#139,#123,#92,.T.);
#169=EDGE_CURVE('',#124,#140,#93,.T.);
#170=EDGE_CURVE('',#129,#141,#94,.T.);
#171=EDGE_CURVE('',#142,#141,#95,.T.);
#172=EDGE_CURVE('',#142,#130,#96,.T.);
#173=EDGE_CURVE('',#127,#143,#97,.T.);
#174=EDGE_CURVE('',#144,#143,#98,.T.);
#175=EDGE_CURVE('',#144,#128,#99,.T.);
#176=EDGE_CURVE('',#125,#145,#100,.T.);
#177=EDGE_CURVE('',#146,#145,#101,.T.);
#178=EDGE_CURVE('',#146,#126,#102,.T.);
#179=EDGE_CURVE('',#145,#139,#79,.T.);
#180=EDGE_CURVE('',#140,#142,#80,.T.);
#181=EDGE_CURVE('',#141,#144,#81,.T.);
#182=EDGE_CURVE('',#143,#146,#82,.T.);
#183=ORIENTED_EDGE('',*,*,#147,.F.);
#184=ORIENTED_EDGE('',*,*,#148,.T.);
#185=ORIENTED_EDGE('',*,*,#149,.F.);
#186=ORIENTED_EDGE('',*,*,#150,.T.);
#187=ORIENTED_EDGE('',*,*,#151,.F.);
#188=ORIENTED_EDGE('',*,*,#152,.T.);
#189=ORIENTED_EDGE('',*,*,#153,.F.);
#190=ORIENTED_EDGE('',*,*,#154,.T.);
#191=ORIENTED_EDGE('',*,*,#155,.F.);
#192=ORIENTED_EDGE('',*,*,#156,.F.);
#193=ORIENTED_EDGE('',*,*,#157,.F.);
#194=ORIENTED_EDGE('',*,*,#158,.T.);
#195=ORIENTED_EDGE('',*,*,#159,.T.);
#196=ORIENTED_EDGE('',*,*,#158,.F.);
#197=ORIENTED_EDGE('',*,*,#156,.T.);
#198=ORIENTED_EDGE('',*,*,#160,.T.);
#199=ORIENTED_EDGE('',*,*,#161,.T.);
#200=ORIENTED_EDGE('',*,*,#160,.F.);
#201=ORIENTED_EDGE('',*,*,#162,.F.);
#202=ORIENTED_EDGE('',*,*,#163,.T.);
#203=ORIENTED_EDGE('',*,*,#164,.T.);
#204=ORIENTED_EDGE('',*,*,#163,.F.);
#205=ORIENTED_EDGE('',*,*,#155,.T.);
#206=ORIENTED_EDGE('',*,*,#165,.T.);
#207=ORIENTED_EDGE('',*,*,#166,.T.);
#208=ORIENTED_EDGE('',*,*,#165,.F.);
#209=ORIENTED_EDGE('',*,*,#167,.F.);
#210=ORIENTED_EDGE('',*,*,#168,.T.);
#211=ORIENTED_EDGE('',*,*,#147,.T.);
#212=ORIENTED_EDGE('',*,*,#169,.T.);
#213=ORIENTED_EDGE('',*,*,#153,.T.);
#214=ORIENTED_EDGE('',*,*,#170,.T.);
#215=ORIENTED_EDGE('',*,*,#171,.F.);
#216=ORIENTED_EDGE('',*,*,#172,.T.);
#217=ORIENTED_EDGE('',*,*,#151,.T.);
#218=ORIENTED_EDGE('',*,*,#173,.T.);
#219=ORIENTED_EDGE('',*,*,#174,.F.);
#220=ORIENTED_EDGE('',*,*,#175,.T.);
#221=ORIENTED_EDGE('',*,*,#149,.T.);
#222=ORIENTED_EDGE('',*,*,#176,.T.);
#223=ORIENTED_EDGE('',*,*,#177,.F.);
#224=ORIENTED_EDGE('',*,*,#178,.T.);
#225=ORIENTED_EDGE('',*,*,#177,.T.);
#226=ORIENTED_EDGE('',*,*,#179,.T.);
#227=ORIENTED_EDGE('',*,*,#167,.T.);
#228=ORIENTED_EDGE('',*,*,#180,.T.);
#229=ORIENTED_EDGE('',*,*,#171,.T.);
#230=ORIENTED_EDGE('',*,*,#181,.T.);
#231=ORIENTED_EDGE('',*,*,#174,.T.);
#232=ORIENTED_EDGE('',*,*,#182,.T.);
#233=ORIENTED_EDGE('',*,*,#159,.F.);
#234=ORIENTED_EDGE('',*,*,#164,.F.);
#235=ORIENTED_EDGE('',*,*,#179,.F.);
#236=ORIENTED_EDGE('',*,*,#176,.F.);
#237=ORIENTED_EDGE('',*,*,#148,.F.);
#238=ORIENTED_EDGE('',*,*,#168,.F.);
#239=ORIENTED_EDGE('',*,*,#182,.F.);
#240=ORIENTED_EDGE('',*,*,#173,.F.);
#241=ORIENTED_EDGE('',*,*,#150,.F.);
#242=ORIENTED_EDGE('',*,*,#178,.F.);
#243=ORIENTED_EDGE('',*,*,#181,.F.);
#244=ORIENTED_EDGE('',*,*,#170,.F.);
#245=ORIENTED_EDGE('',*,*,#152,.F.);
#246=ORIENTED_EDGE('',*,*,#175,.F.);
#247=ORIENTED_EDGE('',*,*,#180,.F.);
#248=ORIENTED_EDGE('',*,*,#169,.F.);
#249=ORIENTED_EDGE('',*,*,#154,.F.);
#250=ORIENTED_EDGE('',*,*,#172,.F.);
#251=ORIENTED_EDGE('',*,*,#162,.T.);
#252=ORIENTED_EDGE('',*,*,#166,.F.);
#253=ORIENTED_EDGE('',*,*,#157,.T.);
#254=ORIENTED_EDGE('',*,*,#161,.F.);
#255=PLANE('',#293);
#256=PLANE('',#310);
#257=PLANE('',#311);
#258=PLANE('',#312);
#259=PLANE('',#313);
#260=PLANE('',#314);
#261=PLANE('',#323);
#262=PLANE('',#324);
#263=ADVANCED_FACE('',(#29,#23,#24),#255,.T.);
#264=ADVANCED_FACE('',(#30),#15,.F.);
#265=ADVANCED_FACE('',(#31),#16,.F.);
#266=ADVANCED_FACE('',(#32),#17,.F.);
#267=ADVANCED_FACE('',(#33),#18,.F.);
#268=ADVANCED_FACE('',(#34),#256,.F.);
#269=ADVANCED_FACE('',(#35),#257,.F.);
#270=ADVANCED_FACE('',(#36),#258,.F.);
#271=ADVANCED_FACE('',(#37),#259,.F.);
#272=ADVANCED_FACE('',(#38,#25,#26),#260,.F.);
#273=ADVANCED_FACE('',(#39),#19,.T.);
#274=ADVANCED_FACE('',(#40),#20,.T.);
#275=ADVANCED_FACE('',(#41),#21,.T.);
#276=ADVANCED_FACE('',(#42),#22,.T.);
#277=ADVANCED_FACE('',(#43,#27),#261,.F.);
#278=ADVANCED_FACE('',(#44,#28),#262,.F.);
#279=CLOSED_SHELL('',(#263,#264,#265,#266,#267,#268,#269,#270,#271,#272,
#273,#274,#275,#276,#277,#278));
#280=DERIVED_UNIT_ELEMENT(#282,1.);
#281=DERIVED_UNIT_ELEMENT(#493,-3.);
#282=(
MASS_UNIT()
NAMED_UNIT(*)
SI_UNIT(.KILO.,.GRAM.)
);
#283=DERIVED_UNIT((#280,#281));
#284=MEASURE_REPRESENTATION_ITEM('density measure',
POSITIVE_RATIO_MEASURE(7850.),#283);
#285=PROPERTY_DEFINITION_REPRESENTATION(#290,#287);
#286=PROPERTY_DEFINITION_REPRESENTATION(#291,#288);
#287=REPRESENTATION('material name',(#289),#490);
#288=REPRESENTATION('density',(#284),#490);
#289=DESCRIPTIVE_REPRESENTATION_ITEM('Steel','Steel');
#290=PROPERTY_DEFINITION('material property','material name',#500);
#291=PROPERTY_DEFINITION('material property','density of part',#500);
#292=AXIS2_PLACEMENT_3D('placement',#411,#325,#326);
#293=AXIS2_PLACEMENT_3D('',#412,#327,#328);
#294=AXIS2_PLACEMENT_3D('',#417,#330,#331);
#295=AXIS2_PLACEMENT_3D('',#421,#333,#334);
#296=AXIS2_PLACEMENT_3D('',#425,#336,#337);
#297=AXIS2_PLACEMENT_3D('',#428,#339,#340);
#298=AXIS2_PLACEMENT_3D('',#430,#341,#342);
#299=AXIS2_PLACEMENT_3D('',#432,#343,#344);
#300=AXIS2_PLACEMENT_3D('',#433,#345,#346);
#301=AXIS2_PLACEMENT_3D('',#435,#347,#348);
#302=AXIS2_PLACEMENT_3D('',#438,#350,#351);
#303=AXIS2_PLACEMENT_3D('',#439,#352,#353);
#304=AXIS2_PLACEMENT_3D('',#442,#355,#356);
#305=AXIS2_PLACEMENT_3D('',#443,#357,#358);
#306=AXIS2_PLACEMENT_3D('',#445,#359,#360);
#307=AXIS2_PLACEMENT_3D('',#448,#362,#363);
#308=AXIS2_PLACEMENT_3D('',#449,#364,#365);
#309=AXIS2_PLACEMENT_3D('',#452,#367,#368);
#310=AXIS2_PLACEMENT_3D('',#453,#369,#370);
#311=AXIS2_PLACEMENT_3D('',#459,#374,#375);
#312=AXIS2_PLACEMENT_3D('',#465,#379,#380);
#313=AXIS2_PLACEMENT_3D('',#471,#384,#385);
#314=AXIS2_PLACEMENT_3D('',#477,#389,#390);
#315=AXIS2_PLACEMENT_3D('',#478,#391,#392);
#316=AXIS2_PLACEMENT_3D('',#479,#393,#394);
#317=AXIS2_PLACEMENT_3D('',#480,#395,#396);
#318=AXIS2_PLACEMENT_3D('',#481,#397,#398);
#319=AXIS2_PLACEMENT_3D('',#482,#399,#400);
#320=AXIS2_PLACEMENT_3D('',#483,#401,#402);
#321=AXIS2_PLACEMENT_3D('',#484,#403,#404);
#322=AXIS2_PLACEMENT_3D('',#485,#405,#406);
#323=AXIS2_PLACEMENT_3D('',#486,#407,#408);
#324=AXIS2_PLACEMENT_3D('',#487,#409,#410);
#325=DIRECTION('axis',(0.,0.,1.));
#326=DIRECTION('refdir',(1.,0.,0.));
#327=DIRECTION('center_axis',(2.22044604925031E-16,-9.72346137165803E-63,
-1.));
#328=DIRECTION('ref_axis',(1.,-2.22044604925031E-16,2.22044604925031E-16));
#329=DIRECTION('',(-1.,2.22044604925031E-16,-2.22044604925031E-16));
#330=DIRECTION('center_axis',(2.22044604925031E-16,-9.72346137165803E-63,
-1.));
#331=DIRECTION('ref_axis',(1.,-2.22044604925031E-16,2.22044604925031E-16));
#332=DIRECTION('',(2.22044604925031E-16,1.,3.15544362088405E-32));
#333=DIRECTION('center_axis',(2.22044604925031E-16,-9.72346137165803E-63,
-1.));
#334=DIRECTION('ref_axis',(1.,-2.22044604925031E-16,2.22044604925031E-16));
#335=DIRECTION('',(1.,-2.22044604925031E-16,2.22044604925031E-16));
#336=DIRECTION('center_axis',(2.22044604925031E-16,-9.72346137165803E-63,
-1.));
#337=DIRECTION('ref_axis',(1.,-2.22044604925031E-16,2.22044604925031E-16));
#338=DIRECTION('',(-2.22044604925031E-16,-1.,-3.15544362088405E-32));
#339=DIRECTION('center_axis',(2.22044604925031E-16,-9.72346137165803E-63,
-1.));
#340=DIRECTION('ref_axis',(1.,-2.22044604925031E-16,2.22044604925031E-16));
#341=DIRECTION('center_axis',(2.22044604925031E-16,-9.72346137165803E-63,
-1.));
#342=DIRECTION('ref_axis',(1.,-2.22044604925031E-16,2.22044604925031E-16));
#343=DIRECTION('center_axis',(2.22044604925031E-16,-9.72346137165803E-63,
-1.));
#344=DIRECTION('ref_axis',(1.,-2.22044604925031E-16,2.22044604925031E-16));
#345=DIRECTION('center_axis',(-2.22044604925031E-16,9.72346137165803E-63,
1.));
#346=DIRECTION('ref_axis',(-1.,2.22044604925031E-16,-2.22044604925031E-16));
#347=DIRECTION('center_axis',(-2.22044604925031E-16,9.72346137165803E-63,
1.));
#348=DIRECTION('ref_axis',(-1.,2.22044604925031E-16,-2.22044604925031E-16));
#349=DIRECTION('',(-2.22044604925031E-16,9.72346137165803E-63,1.));
#350=DIRECTION('center_axis',(-2.22044604925031E-16,9.72346137165803E-63,
1.));
#351=DIRECTION('ref_axis',(-1.,2.22044604925031E-16,-2.22044604925031E-16));
#352=DIRECTION('center_axis',(-2.22044604925031E-16,9.72346137165803E-63,
1.));
#353=DIRECTION('ref_axis',(-1.,2.22044604925031E-16,-2.22044604925031E-16));
#354=DIRECTION('',(-2.22044604925031E-16,9.72346137165803E-63,1.));
#355=DIRECTION('center_axis',(-2.22044604925031E-16,9.72346137165803E-63,
1.));
#356=DIRECTION('ref_axis',(-1.,2.22044604925031E-16,-2.22044604925031E-16));
#357=DIRECTION('center_axis',(-2.22044604925031E-16,9.72346137165803E-63,
1.));
#358=DIRECTION('ref_axis',(-1.,2.22044604925031E-16,-2.22044604925031E-16));
#359=DIRECTION('center_axis',(-2.22044604925031E-16,9.72346137165803E-63,
1.));
#360=DIRECTION('ref_axis',(-1.,2.22044604925031E-16,-2.22044604925031E-16));
#361=DIRECTION('',(-2.22044604925031E-16,9.72346137165803E-63,1.));
#362=DIRECTION('center_axis',(-2.22044604925031E-16,9.72346137165803E-63,
1.));
#363=DIRECTION('ref_axis',(-1.,2.22044604925031E-16,-2.22044604925031E-16));
#364=DIRECTION('center_axis',(-2.22044604925031E-16,9.72346137165803E-63,
1.));
#365=DIRECTION('ref_axis',(-1.,2.22044604925031E-16,-2.22044604925031E-16));
#366=DIRECTION('',(-2.22044604925031E-16,9.72346137165803E-63,1.));
#367=DIRECTION('center_axis',(-2.22044604925031E-16,9.72346137165803E-63,
1.));
#368=DIRECTION('ref_axis',(-1.,2.22044604925031E-16,-2.22044604925031E-16));
#369=DIRECTION('center_axis',(-2.22044604925031E-16,-1.,-4.93038065763132E-32));
#370=DIRECTION('ref_axis',(1.,-2.22044604925031E-16,2.22044604925031E-16));
#371=DIRECTION('',(-1.,2.22044604925031E-16,-2.22044604925031E-16));
#372=DIRECTION('',(2.22044604925031E-16,-9.72346137165803E-63,-1.));
#373=DIRECTION('',(-2.22044604925031E-16,9.72346137165803E-63,1.));
#374=DIRECTION('center_axis',(1.,-2.22044604925031E-16,2.22044604925031E-16));
#375=DIRECTION('ref_axis',(2.22044604925031E-16,1.,3.08148791101958E-32));
#376=DIRECTION('',(-2.22044604925031E-16,9.72346137165803E-63,1.));
#377=DIRECTION('',(-2.22044604925031E-16,-1.,-3.15544362088405E-32));
#378=DIRECTION('',(2.22044604925031E-16,-9.72346137165803E-63,-1.));
#379=DIRECTION('center_axis',(2.22044604925031E-16,1.,4.93038065763132E-32));
#380=DIRECTION('ref_axis',(-1.,2.22044604925031E-16,-2.22044604925031E-16));
#381=DIRECTION('',(-2.22044604925031E-16,9.72346137165803E-63,1.));
#382=DIRECTION('',(1.,-2.22044604925031E-16,2.22044604925031E-16));
#383=DIRECTION('',(2.22044604925031E-16,-9.72346137165803E-63,-1.));
#384=DIRECTION('center_axis',(-1.,2.22044604925031E-16,-2.22044604925031E-16));
#385=DIRECTION('ref_axis',(-2.22044604925031E-16,-1.,-3.08148791101958E-32));
#386=DIRECTION('',(-2.22044604925031E-16,9.72346137165803E-63,1.));
#387=DIRECTION('',(2.22044604925031E-16,1.,3.15544362088405E-32));
#388=DIRECTION('',(2.22044604925031E-16,-9.72346137165803E-63,-1.));
#389=DIRECTION('center_axis',(2.22044604925031E-16,-9.72346137165803E-63,
-1.));
#390=DIRECTION('ref_axis',(1.,-2.22044604925031E-16,2.22044604925031E-16));
#391=DIRECTION('center_axis',(-2.22044604925031E-16,9.72346137165803E-63,
1.));
#392=DIRECTION('ref_axis',(1.,-2.22044604925031E-16,2.22044604925031E-16));
#393=DIRECTION('center_axis',(-2.22044604925031E-16,9.72346137165803E-63,
1.));
#394=DIRECTION('ref_axis',(1.,-2.22044604925031E-16,2.22044604925031E-16));
#395=DIRECTION('center_axis',(-2.22044604925031E-16,9.72346137165803E-63,
1.));
#396=DIRECTION('ref_axis',(1.,-2.22044604925031E-16,2.22044604925031E-16));
#397=DIRECTION('center_axis',(-2.22044604925031E-16,9.72346137165803E-63,
1.));
#398=DIRECTION('ref_axis',(1.,-2.22044604925031E-16,2.22044604925031E-16));
#399=DIRECTION('center_axis',(2.22044604925031E-16,-9.72346137165803E-63,
-1.));
#400=DIRECTION('ref_axis',(1.,-2.22044604925031E-16,2.22044604925031E-16));
#401=DIRECTION('center_axis',(2.22044604925031E-16,-9.72346137165803E-63,
-1.));
#402=DIRECTION('ref_axis',(1.,-2.22044604925031E-16,2.22044604925031E-16));
#403=DIRECTION('center_axis',(2.22044604925031E-16,-9.72346137165803E-63,
-1.));
#404=DIRECTION('ref_axis',(1.,-2.22044604925031E-16,2.22044604925031E-16));
#405=DIRECTION('center_axis',(2.22044604925031E-16,-9.72346137165803E-63,
-1.));
#406=DIRECTION('ref_axis',(1.,-2.22044604925031E-16,2.22044604925031E-16));
#407=DIRECTION('center_axis',(2.22044604925031E-16,-9.72346137165803E-63,
-1.));
#408=DIRECTION('ref_axis',(1.,-2.22044604925031E-16,2.22044604925031E-16));
#409=DIRECTION('center_axis',(2.22044604925031E-16,-9.72346137165803E-63,
-1.));
#410=DIRECTION('ref_axis',(1.,-2.22044604925031E-16,2.22044604925031E-16));
#411=CARTESIAN_POINT('',(0.,0.,0.));
#412=CARTESIAN_POINT('Origin',(45.,-8.88178419700125E-14,24.));
#413=CARTESIAN_POINT('',(42.5,-8.82627304576999E-14,24.));
#414=CARTESIAN_POINT('',(2.49999999999996,-7.93809462606987E-14,24.));
#415=CARTESIAN_POINT('',(-3.5527136788005E-14,-7.88258347483861E-14,24.));
#416=CARTESIAN_POINT('',(45.,-2.50000000000009,24.));
#417=CARTESIAN_POINT('Origin',(42.5,-2.50000000000009,24.));
#418=CARTESIAN_POINT('',(45.,-87.5000000000001,24.));
#419=CARTESIAN_POINT('',(45.,-8.88178419700125E-14,24.));
#420=CARTESIAN_POINT('',(42.4999999999999,-90.0000000000001,24.));
#421=CARTESIAN_POINT('Origin',(42.5,-87.5000000000001,24.));
#422=CARTESIAN_POINT('',(2.49999999999995,-90.0000000000001,24.));
#423=CARTESIAN_POINT('',(-5.32907051820075E-14,-90.0000000000001,24.));
#424=CARTESIAN_POINT('',(-5.32907051820075E-14,-87.5,24.));
#425=CARTESIAN_POINT('Origin',(2.49999999999995,-87.5000000000001,24.));
#426=CARTESIAN_POINT('',(-3.5527136788005E-14,-2.50000000000008,24.));
#427=CARTESIAN_POINT('',(-3.5527136788005E-14,-7.88258347483861E-14,24.));
#428=CARTESIAN_POINT('Origin',(2.49999999999996,-2.50000000000008,24.));
#429=CARTESIAN_POINT('',(27.,-67.5000000000001,24.));
#430=CARTESIAN_POINT('Origin',(22.5,-67.5000000000001,24.));
#431=CARTESIAN_POINT('',(27.,-22.5000000000001,24.));
#432=CARTESIAN_POINT('Origin',(22.5,-22.5000000000001,24.));
#433=CARTESIAN_POINT('Origin',(22.5,-22.5000000000001,36.));
#434=CARTESIAN_POINT('',(29.25,-22.5000000000001,30.5));
#435=CARTESIAN_POINT('Origin',(22.5,-22.5000000000001,30.5));
#436=CARTESIAN_POINT('',(29.25,-22.5000000000001,36.));
#437=CARTESIAN_POINT('',(29.25,-22.5000000000001,36.));
#438=CARTESIAN_POINT('Origin',(22.5,-22.5000000000001,36.));
#439=CARTESIAN_POINT('Origin',(22.5,-22.5000000000001,36.));
#440=CARTESIAN_POINT('',(27.,-22.5000000000001,30.5));
#441=CARTESIAN_POINT('',(27.,-22.5000000000001,36.));
#442=CARTESIAN_POINT('Origin',(22.5,-22.5000000000001,30.5));
#443=CARTESIAN_POINT('Origin',(22.5,-67.5000000000001,36.));
#444=CARTESIAN_POINT('',(29.25,-67.5000000000001,30.5));
#445=CARTESIAN_POINT('Origin',(22.5,-67.5000000000001,30.5));
#446=CARTESIAN_POINT('',(29.25,-67.5000000000001,36.));
#447=CARTESIAN_POINT('',(29.25,-67.5000000000001,36.));
#448=CARTESIAN_POINT('Origin',(22.5,-67.5000000000001,36.));
#449=CARTESIAN_POINT('Origin',(22.5,-67.5000000000001,36.));
#450=CARTESIAN_POINT('',(27.,-67.5000000000001,30.5));
#451=CARTESIAN_POINT('',(27.,-67.5000000000001,36.));
#452=CARTESIAN_POINT('Origin',(22.5,-67.5000000000001,30.5));
#453=CARTESIAN_POINT('Origin',(-3.5527136788005E-14,-7.61612994892858E-14,
36.));
#454=CARTESIAN_POINT('',(42.5,-8.55981951985996E-14,36.));
#455=CARTESIAN_POINT('',(2.49999999999996,-7.67164110015983E-14,36.));
#456=CARTESIAN_POINT('',(-3.5527136788005E-14,-7.61612994892858E-14,36.));
#457=CARTESIAN_POINT('',(42.5,-8.55981951985996E-14,36.));
#458=CARTESIAN_POINT('',(2.49999999999996,-7.67164110015983E-14,36.));
#459=CARTESIAN_POINT('Origin',(-3.5527136788005E-14,-7.61612994892858E-14,
36.));
#460=CARTESIAN_POINT('',(-5.32907051820075E-14,-87.5,36.));
#461=CARTESIAN_POINT('',(-5.32907051820075E-14,-87.5000000000001,36.));
#462=CARTESIAN_POINT('',(-3.5527136788005E-14,-2.50000000000008,36.));
#463=CARTESIAN_POINT('',(-3.5527136788005E-14,-7.61612994892858E-14,36.));
#464=CARTESIAN_POINT('',(-3.5527136788005E-14,-2.50000000000008,36.));
#465=CARTESIAN_POINT('Origin',(-5.32907051820075E-14,-90.0000000000001,
36.));
#466=CARTESIAN_POINT('',(42.4999999999999,-90.0000000000001,36.));
#467=CARTESIAN_POINT('',(42.4999999999999,-90.0000000000001,36.));
#468=CARTESIAN_POINT('',(2.49999999999995,-90.0000000000001,36.));
#469=CARTESIAN_POINT('',(-5.32907051820075E-14,-90.0000000000001,36.));
#470=CARTESIAN_POINT('',(2.49999999999995,-90.0000000000001,36.));
#471=CARTESIAN_POINT('Origin',(45.,-8.61533067109122E-14,36.));
#472=CARTESIAN_POINT('',(45.,-2.50000000000009,36.));
#473=CARTESIAN_POINT('',(45.,-2.50000000000009,36.));
#474=CARTESIAN_POINT('',(45.,-87.5000000000001,36.));
#475=CARTESIAN_POINT('',(45.,-8.61533067109122E-14,36.));
#476=CARTESIAN_POINT('',(45.,-87.5000000000001,36.));
#477=CARTESIAN_POINT('Origin',(45.,-8.61533067109122E-14,36.));
#478=CARTESIAN_POINT('Origin',(42.5,-2.50000000000009,36.));
#479=CARTESIAN_POINT('Origin',(2.49999999999996,-2.50000000000008,36.));
#480=CARTESIAN_POINT('Origin',(2.49999999999995,-87.5000000000001,36.));
#481=CARTESIAN_POINT('Origin',(42.5,-87.5000000000001,36.));
#482=CARTESIAN_POINT('Origin',(42.5,-2.50000000000009,36.));
#483=CARTESIAN_POINT('Origin',(42.5,-87.5000000000001,36.));
#484=CARTESIAN_POINT('Origin',(2.49999999999995,-87.5000000000001,36.));
#485=CARTESIAN_POINT('Origin',(2.49999999999996,-2.50000000000008,36.));
#486=CARTESIAN_POINT('Origin',(22.5,-72.0000000000001,30.5));
#487=CARTESIAN_POINT('Origin',(22.5,-27.0000000000001,30.5));
#488=UNCERTAINTY_MEASURE_WITH_UNIT(LENGTH_MEASURE(0.01),#492,
'DISTANCE_ACCURACY_VALUE',
'Maximum model space distance between geometric entities at asserted c
onnectivities');
#489=UNCERTAINTY_MEASURE_WITH_UNIT(LENGTH_MEASURE(0.01),#492,
'DISTANCE_ACCURACY_VALUE',
'Maximum model space distance between geometric entities at asserted c
onnectivities');
#490=(
GEOMETRIC_REPRESENTATION_CONTEXT(3)
GLOBAL_UNCERTAINTY_ASSIGNED_CONTEXT((#488))
GLOBAL_UNIT_ASSIGNED_CONTEXT((#492,#494,#495))
REPRESENTATION_CONTEXT('','3D')
);
#491=(
GEOMETRIC_REPRESENTATION_CONTEXT(3)
GLOBAL_UNCERTAINTY_ASSIGNED_CONTEXT((#489))
GLOBAL_UNIT_ASSIGNED_CONTEXT((#492,#494,#495))
REPRESENTATION_CONTEXT('','3D')
);
#492=(
LENGTH_UNIT()
NAMED_UNIT(*)
SI_UNIT(.MILLI.,.METRE.)
);
#493=(
LENGTH_UNIT()
NAMED_UNIT(*)
SI_UNIT($,.METRE.)
);
#494=(
NAMED_UNIT(*)
PLANE_ANGLE_UNIT()
SI_UNIT($,.RADIAN.)
);
#495=(
NAMED_UNIT(*)
SI_UNIT($,.STERADIAN.)
SOLID_ANGLE_UNIT()
);
#496=SHAPE_DEFINITION_REPRESENTATION(#497,#498);
#497=PRODUCT_DEFINITION_SHAPE('',$,#500);
#498=SHAPE_REPRESENTATION('',(#292),#490);
#499=PRODUCT_DEFINITION_CONTEXT('part definition',#504,'design');
#500=PRODUCT_DEFINITION('32-4590M10-0','32-4590M10-0 v10',#501,#499);
#501=PRODUCT_DEFINITION_FORMATION('',$,#506);
#502=PRODUCT_RELATED_PRODUCT_CATEGORY('32-4590M10-0 v10',
'32-4590M10-0 v10',(#506));
#503=APPLICATION_PROTOCOL_DEFINITION('international standard',
'automotive_design',2009,#504);
#504=APPLICATION_CONTEXT(
'Core Data for Automotive Mechanical Design Process');
#505=PRODUCT_CONTEXT('part definition',#504,'mechanical');
#506=PRODUCT('32-4590M10-0','32-4590M10-0 v10',$,(#505));
#507=PRESENTATION_STYLE_ASSIGNMENT((#509));
#508=PRESENTATION_STYLE_ASSIGNMENT((#510));
#509=SURFACE_STYLE_USAGE(.BOTH.,#511);
#510=SURFACE_STYLE_USAGE(.BOTH.,#512);
#511=SURFACE_SIDE_STYLE('',(#513));
#512=SURFACE_SIDE_STYLE('',(#514));
#513=SURFACE_STYLE_FILL_AREA(#515);
#514=SURFACE_STYLE_FILL_AREA(#516);
#515=FILL_AREA_STYLE('Steel - Satin',(#517));
#516=FILL_AREA_STYLE('Plastic - Glossy (Grey)',(#518));
#517=FILL_AREA_STYLE_COLOUR('Steel - Satin',#519);
#518=FILL_AREA_STYLE_COLOUR('Plastic - Glossy (Grey)',#520);
#519=COLOUR_RGB('Steel - Satin',0.627450980392157,0.627450980392157,0.627450980392157);
#520=COLOUR_RGB('Plastic - Glossy (Grey)',0.701960784313725,0.701960784313725,
0.701960784313725);
ENDSEC;
END-ISO-10303-21;
