ISO-10303-21;
HEADER;
FILE_DESCRIPTION (( 'STEP AP203' ),
    '1' );
FILE_NAME ('084.514.002.STEP',
    '2013-01-28T13:16:44',
    ( 'Alusic' ),
    ( 'Alusic' ),
    'SwSTEP 2.0',
    'SolidWorks 2011',
    '' );
FILE_SCHEMA (( 'CONFIG_CONTROL_DESIGN' ));
ENDSEC;

DATA;
#1 = APPLICATION_PROTOCOL_DEFINITION ( 'international standard', 'config_control_design', 1994, #314 ) ;
#2 = ORIENTED_EDGE ( 'NONE', *, *, #59, .F. ) ;
#3 = ORIENTED_EDGE ( 'NONE', *, *, #107, .F. ) ;
#4 = EDGE_CURVE ( 'NONE', #66, #14, #171, .T. ) ;
#5 = ORIENTED_EDGE ( 'NONE', *, *, #106, .F. ) ;
#6 = ORIENTED_EDGE ( 'NONE', *, *, #111, .F. ) ;
#7 = VERTEX_POINT ( 'NONE', #201 ) ;
#8 = ORIENTED_EDGE ( 'NONE', *, *, #12, .F. ) ;
#9 = ADVANCED_FACE ( 'NONE', ( #170 ), #160, .F. ) ;
#10 = ORIENTED_EDGE ( 'NONE', *, *, #46, .T. ) ;
#11 = EDGE_CURVE ( 'NONE', #66, #43, #153, .T. ) ;
#12 = EDGE_CURVE ( 'NONE', #14, #7, #161, .T. ) ;
#13 = EDGE_CURVE ( 'NONE', #48, #66, #174, .T. ) ;
#14 = VERTEX_POINT ( 'NONE', #167 ) ;
#15 = ORIENTED_EDGE ( 'NONE', *, *, #73, .T. ) ;
#16 = ORIENTED_EDGE ( 'NONE', *, *, #109, .T. ) ;
#17 = ORIENTED_EDGE ( 'NONE', *, *, #35, .T. ) ;
#18 = ORIENTED_EDGE ( 'NONE', *, *, #13, .T. ) ;
#19 = ADVANCED_FACE ( 'NONE', ( #173 ), #154, .F. ) ;
#20 = ORIENTED_EDGE ( 'NONE', *, *, #71, .F. ) ;
#21 = ORIENTED_EDGE ( 'NONE', *, *, #73, .F. ) ;
#22 = EDGE_LOOP ( 'NONE', ( #30, #20, #21, #5, #29, #2, #6, #65, #3, #77 ) ) ;
#23 = ORIENTED_EDGE ( 'NONE', *, *, #136, .T. ) ;
#24 = ORIENTED_EDGE ( 'NONE', *, *, #4, .T. ) ;
#25 = ADVANCED_FACE ( 'NONE', ( #296 ), #237, .T. ) ;
#26 = MECHANICAL_CONTEXT ( 'NONE', #314, 'mechanical' ) ;
#27 = ORIENTED_EDGE ( 'NONE', *, *, #45, .T. ) ;
#28 = CLOSED_SHELL ( 'NONE', ( #100, #104, #122, #129, #114, #125, #49, #42, #9, #82, #19, #25 ) ) ;
#29 = ORIENTED_EDGE ( 'NONE', *, *, #60, .F. ) ;
#30 = ORIENTED_EDGE ( 'NONE', *, *, #90, .F. ) ;
#31 = DIRECTION ( 'NONE',  ( -0.0000000000000000000, 0.7071067811865469100, -0.7071067811865482400 ) ) ;
#32 = ORIENTED_EDGE ( 'NONE', *, *, #81, .T. ) ;
#33 = VECTOR ( 'NONE', #31, 999.9999999999998900 ) ;
#34 = ORIENTED_EDGE ( 'NONE', *, *, #121, .F. ) ;
#35 = EDGE_CURVE ( 'NONE', #137, #140, #148, .T. ) ;
#36 = ORIENTED_EDGE ( 'NONE', *, *, #133, .T. ) ;
#37 = VERTEX_POINT ( 'NONE', #270 ) ;
#38 = ORIENTED_EDGE ( 'NONE', *, *, #121, .T. ) ;
#39 = VERTEX_POINT ( 'NONE', #267 ) ;
#40 = ORIENTED_EDGE ( 'NONE', *, *, #45, .F. ) ;
#41 = ORIENTED_EDGE ( 'NONE', *, *, #51, .T. ) ;
#42 = ADVANCED_FACE ( 'NONE', ( #271 ), #163, .F. ) ;
#43 = VERTEX_POINT ( 'NONE', #144 ) ;
#44 = EDGE_LOOP ( 'NONE', ( #47, #113, #67, #10 ) ) ;
#45 = EDGE_CURVE ( 'NONE', #56, #48, #208, .T. ) ;
#46 = EDGE_CURVE ( 'NONE', #48, #50, #234, .T. ) ;
#47 = ORIENTED_EDGE ( 'NONE', *, *, #106, .T. ) ;
#48 = VERTEX_POINT ( 'NONE', #232 ) ;
#49 = ADVANCED_FACE ( 'NONE', ( #235 ), #210, .F. ) ;
#50 = VERTEX_POINT ( 'NONE', #309 ) ;
#51 = EDGE_CURVE ( 'NONE', #56, #58, #197, .T. ) ;
#52 = EDGE_LOOP ( 'NONE', ( #62, #54, #40, #41 ) ) ;
#53 = ORIENTED_EDGE ( 'NONE', *, *, #116, .T. ) ;
#54 = ORIENTED_EDGE ( 'NONE', *, *, #46, .F. ) ;
#55 = ORIENTED_EDGE ( 'NONE', *, *, #57, .F. ) ;
#56 = VERTEX_POINT ( 'NONE', #143 ) ;
#57 = EDGE_CURVE ( 'NONE', #110, #56, #252, .T. ) ;
#58 = VERTEX_POINT ( 'NONE', #253 ) ;
#59 = EDGE_CURVE ( 'NONE', #112, #58, #248, .T. ) ;
#60 = EDGE_CURVE ( 'NONE', #58, #50, #199, .T. ) ;
#61 = ORIENTED_EDGE ( 'NONE', *, *, #59, .T. ) ;
#62 = ORIENTED_EDGE ( 'NONE', *, *, #60, .T. ) ;
#63 = ORIENTED_EDGE ( 'NONE', *, *, #118, .T. ) ;
#64 = MANIFOLD_SOLID_BREP ( 'Elemento strutturale1', #28 ) ;
#65 = ORIENTED_EDGE ( 'NONE', *, *, #98, .F. ) ;
#66 = VERTEX_POINT ( 'NONE', #246 ) ;
#67 = ORIENTED_EDGE ( 'NONE', *, *, #13, .F. ) ;
#68 = EDGE_LOOP ( 'NONE', ( #69, #83, #74, #78 ) ) ;
#69 = ORIENTED_EDGE ( 'NONE', *, *, #71, .T. ) ;
#70 = EDGE_LOOP ( 'NONE', ( #80, #23, #17, #16, #63, #75, #27, #18, #24, #32 ) ) ;
#71 = EDGE_CURVE ( 'NONE', #7, #93, #214, .T. ) ;
#72 = EDGE_LOOP ( 'NONE', ( #15, #8, #76, #79 ) ) ;
#73 = EDGE_CURVE ( 'NONE', #43, #7, #261, .T. ) ;
#74 = ORIENTED_EDGE ( 'NONE', *, *, #81, .F. ) ;
#75 = ORIENTED_EDGE ( 'NONE', *, *, #57, .T. ) ;
#76 = ORIENTED_EDGE ( 'NONE', *, *, #4, .F. ) ;
#77 = ORIENTED_EDGE ( 'NONE', *, *, #96, .F. ) ;
#78 = ORIENTED_EDGE ( 'NONE', *, *, #12, .T. ) ;
#79 = ORIENTED_EDGE ( 'NONE', *, *, #11, .T. ) ;
#80 = ORIENTED_EDGE ( 'NONE', *, *, #85, .T. ) ;
#81 = EDGE_CURVE ( 'NONE', #14, #126, #256, .T. ) ;
#82 = ADVANCED_FACE ( 'NONE', ( #264 ), #257, .F. ) ;
#83 = ORIENTED_EDGE ( 'NONE', *, *, #88, .F. ) ;
#84 = ORIENTED_EDGE ( 'NONE', *, *, #139, .F. ) ;
#85 = EDGE_CURVE ( 'NONE', #126, #87, #266, .T. ) ;
#86 = EDGE_CURVE ( 'NONE', #137, #91, #224, .T. ) ;
#87 = VERTEX_POINT ( 'NONE', #262 ) ;
#88 = EDGE_CURVE ( 'NONE', #126, #93, #216, .T. ) ;
#89 = PRODUCT ( '084.514.002', '084.514.002', '', ( #26 ) ) ;
#90 = EDGE_CURVE ( 'NONE', #93, #127, #292, .T. ) ;
#91 = VERTEX_POINT ( 'NONE', #219 ) ;
#92 = ORIENTED_EDGE ( 'NONE', *, *, #139, .T. ) ;
#93 = VERTEX_POINT ( 'NONE', #218 ) ;
#94 = ORIENTED_EDGE ( 'NONE', *, *, #107, .T. ) ;
#95 = ORIENTED_EDGE ( 'NONE', *, *, #88, .T. ) ;
#96 = EDGE_CURVE ( 'NONE', #127, #91, #285, .T. ) ;
#97 = VERTEX_POINT ( 'NONE', #284 ) ;
#98 = EDGE_CURVE ( 'NONE', #97, #39, #287, .T. ) ;
#99 = EDGE_LOOP ( 'NONE', ( #103, #135, #105, #92 ) ) ;
#100 = ADVANCED_FACE ( 'NONE', ( #277 ), #273, .F. ) ;
#101 = ORIENTED_EDGE ( 'NONE', *, *, #85, .F. ) ;
#102 = EDGE_LOOP ( 'NONE', ( #108, #84, #101, #95 ) ) ;
#103 = ORIENTED_EDGE ( 'NONE', *, *, #96, .T. ) ;
#104 = ADVANCED_FACE ( 'NONE', ( #288 ), #304, .F. ) ;
#105 = ORIENTED_EDGE ( 'NONE', *, *, #136, .F. ) ;
#106 = EDGE_CURVE ( 'NONE', #50, #43, #303, .T. ) ;
#107 = EDGE_CURVE ( 'NONE', #91, #97, #300, .T. ) ;
#108 = ORIENTED_EDGE ( 'NONE', *, *, #90, .T. ) ;
#109 = EDGE_CURVE ( 'NONE', #140, #37, #297, .T. ) ;
#110 = VERTEX_POINT ( 'NONE', #272 ) ;
#111 = EDGE_CURVE ( 'NONE', #39, #112, #188, .T. ) ;
#112 = VERTEX_POINT ( 'NONE', #190 ) ;
#113 = ORIENTED_EDGE ( 'NONE', *, *, #11, .F. ) ;
#114 = ADVANCED_FACE ( 'NONE', ( #189 ), #276, .F. ) ;
#115 = EDGE_LOOP ( 'NONE', ( #61, #141, #55, #53 ) ) ;
#116 = EDGE_CURVE ( 'NONE', #110, #112, #183, .T. ) ;
#117 = ORIENTED_EDGE ( 'NONE', *, *, #116, .F. ) ;
#118 = EDGE_CURVE ( 'NONE', #37, #110, #176, .T. ) ;
#119 = ORIENTED_EDGE ( 'NONE', *, *, #118, .F. ) ;
#120 = ORIENTED_EDGE ( 'NONE', *, *, #111, .T. ) ;
#121 = EDGE_CURVE ( 'NONE', #140, #97, #323, .T. ) ;
#122 = ADVANCED_FACE ( 'NONE', ( #349 ), #352, .F. ) ;
#123 = ORIENTED_EDGE ( 'NONE', *, *, #35, .F. ) ;
#124 = EDGE_LOOP ( 'NONE', ( #120, #117, #119, #36 ) ) ;
#125 = ADVANCED_FACE ( 'NONE', ( #350 ), #351, .F. ) ;
#126 = VERTEX_POINT ( 'NONE', #344 ) ;
#127 = VERTEX_POINT ( 'NONE', #343 ) ;
#128 = ORIENTED_EDGE ( 'NONE', *, *, #86, .T. ) ;
#129 = ADVANCED_FACE ( 'NONE', ( #353 ), #333, .F. ) ;
#130 = ORIENTED_EDGE ( 'NONE', *, *, #109, .F. ) ;
#131 = ORIENTED_EDGE ( 'NONE', *, *, #133, .F. ) ;
#132 = ORIENTED_EDGE ( 'NONE', *, *, #98, .T. ) ;
#133 = EDGE_CURVE ( 'NONE', #37, #39, #367, .T. ) ;
#134 = EDGE_LOOP ( 'NONE', ( #132, #131, #130, #38 ) ) ;
#135 = ORIENTED_EDGE ( 'NONE', *, *, #86, .F. ) ;
#136 = EDGE_CURVE ( 'NONE', #87, #137, #321, .T. ) ;
#137 = VERTEX_POINT ( 'NONE', #355 ) ;
#138 = EDGE_LOOP ( 'NONE', ( #94, #34, #123, #128 ) ) ;
#139 = EDGE_CURVE ( 'NONE', #87, #127, #339, .T. ) ;
#140 = VERTEX_POINT ( 'NONE', #322 ) ;
#141 = ORIENTED_EDGE ( 'NONE', *, *, #51, .F. ) ;
#142 = DIRECTION ( 'NONE',  ( -0.0000000000000000000, -1.000000000000000000, -0.0000000000000000000 ) ) ;
#143 = CARTESIAN_POINT ( 'NONE',  ( 100.0000000000000000, 4.000000000000001800, -9.164003347034070400E-016 ) ) ;
#144 = CARTESIAN_POINT ( 'NONE',  ( 0.0000000000000000000, 6.750000000000000900, 10.50000000000000000 ) ) ;
#145 = DIRECTION ( 'NONE',  ( -0.0000000000000000000, -1.000000000000000000, -0.0000000000000000000 ) ) ;
#146 = VECTOR ( 'NONE', #145, 1000.000000000000000 ) ;
#147 = CARTESIAN_POINT ( 'NONE',  ( 100.0000000000000000, -6.750000000000000900, 10.50000000000000000 ) ) ;
#148 = LINE ( 'NONE', #147, #146 ) ;
#149 = DIRECTION ( 'NONE',  ( -1.000000000000000000, -0.0000000000000000000, -0.0000000000000000000 ) ) ;
#150 = DIRECTION ( 'NONE',  ( -1.000000000000000000, 0.0000000000000000000, -0.0000000000000000000 ) ) ;
#151 = DIRECTION ( 'NONE',  ( 0.0000000000000000000, 0.0000000000000000000, -1.000000000000000000 ) ) ;
#152 = VECTOR ( 'NONE', #169, 1000.000000000000000 ) ;
#153 = LINE ( 'NONE', #172, #152 ) ;
#154 = PLANE ( 'NONE',  #202 ) ;
#155 = DIRECTION ( 'NONE',  ( -1.000000000000000000, 0.0000000000000000000, 0.0000000000000000000 ) ) ;
#156 = CARTESIAN_POINT ( 'NONE',  ( 0.0000000000000000000, 4.000000000000000000, 40.00000000000000000 ) ) ;
#157 = DIRECTION ( 'NONE',  ( -1.000000000000000000, -0.0000000000000000000, -0.0000000000000000000 ) ) ;
#158 = VECTOR ( 'NONE', #157, 1000.000000000000000 ) ;
#159 = CARTESIAN_POINT ( 'NONE',  ( 100.0000000000000000, 4.000000000000000000, 10.50000000000000000 ) ) ;
#160 = PLANE ( 'NONE',  #168 ) ;
#161 = LINE ( 'NONE', #159, #158 ) ;
#162 = AXIS2_PLACEMENT_3D ( 'NONE', #156, #155, #269 ) ;
#163 = PLANE ( 'NONE',  #268 ) ;
#164 = DIRECTION ( 'NONE',  ( -0.0000000000000000000, 1.119176436114068800E-015, 1.000000000000000000 ) ) ;
#165 = VECTOR ( 'NONE', #164, 1000.000000000000000 ) ;
#166 = CARTESIAN_POINT ( 'NONE',  ( 100.0000000000000000, 6.750000000000000900, 10.50000000000000000 ) ) ;
#167 = CARTESIAN_POINT ( 'NONE',  ( 100.0000000000000000, 4.000000000000000000, 10.50000000000000000 ) ) ;
#168 = AXIS2_PLACEMENT_3D ( 'NONE', #313, #151, #150 ) ;
#169 = DIRECTION ( 'NONE',  ( -1.000000000000000000, -0.0000000000000000000, -0.0000000000000000000 ) ) ;
#170 = FACE_OUTER_BOUND ( 'NONE', #72, .T. ) ;
#171 = LINE ( 'NONE', #203, #236 ) ;
#172 = CARTESIAN_POINT ( 'NONE',  ( 100.0000000000000000, 6.750000000000000900, 10.50000000000000000 ) ) ;
#173 = FACE_OUTER_BOUND ( 'NONE', #70, .T. ) ;
#174 = LINE ( 'NONE', #166, #165 ) ;
#175 = CARTESIAN_POINT ( 'NONE',  ( 100.0000000000000000, -4.000000000000001800, -9.164003347034070400E-016 ) ) ;
#176 = LINE ( 'NONE', #175, #33 ) ;
#177 = DIRECTION ( 'NONE',  ( -1.000000000000000000, -0.0000000000000000000, -0.0000000000000000000 ) ) ;
#178 = VECTOR ( 'NONE', #177, 1000.000000000000000 ) ;
#179 = DIRECTION ( 'NONE',  ( 0.0000000000000000000, -0.7071067811865469100, 0.7071067811865481300 ) ) ;
#180 = DIRECTION ( 'NONE',  ( -0.0000000000000000000, 0.7071067811865481300, 0.7071067811865469100 ) ) ;
#181 = CARTESIAN_POINT ( 'NONE',  ( 100.0000000000000000, -4.000000000000001800, -9.164003347034070400E-016 ) ) ;
#182 = CARTESIAN_POINT ( 'NONE',  ( 100.0000000000000000, -4.000000000000001800, -9.164003347034070400E-016 ) ) ;
#183 = LINE ( 'NONE', #182, #178 ) ;
#184 = AXIS2_PLACEMENT_3D ( 'NONE', #181, #180, #179 ) ;
#185 = DIRECTION ( 'NONE',  ( -0.0000000000000000000, 0.7071067811865469100, -0.7071067811865482400 ) ) ;
#186 = VECTOR ( 'NONE', #185, 999.9999999999998900 ) ;
#187 = CARTESIAN_POINT ( 'NONE',  ( 0.0000000000000000000, -4.000000000000001800, -9.164003347034070400E-016 ) ) ;
#188 = LINE ( 'NONE', #187, #186 ) ;
#189 = FACE_OUTER_BOUND ( 'NONE', #124, .T. ) ;
#190 = CARTESIAN_POINT ( 'NONE',  ( 0.0000000000000000000, -4.000000000000001800, -9.164003347034070400E-016 ) ) ;
#191 = DIRECTION ( 'NONE',  ( -0.0000000000000000000, 6.715058616684411100E-016, -1.000000000000000000 ) ) ;
#192 = VECTOR ( 'NONE', #191, 1000.000000000000000 ) ;
#193 = CARTESIAN_POINT ( 'NONE',  ( 100.0000000000000000, -6.749999999999995600, 2.749999999999997300 ) ) ;
#194 = DIRECTION ( 'NONE',  ( -1.000000000000000000, -0.0000000000000000000, -0.0000000000000000000 ) ) ;
#195 = VECTOR ( 'NONE', #194, 1000.000000000000000 ) ;
#196 = CARTESIAN_POINT ( 'NONE',  ( 100.0000000000000000, 4.000000000000001800, -9.164003347034070400E-016 ) ) ;
#197 = LINE ( 'NONE', #196, #195 ) ;
#198 = CARTESIAN_POINT ( 'NONE',  ( 0.0000000000000000000, 4.000000000000000000, 40.00000000000000000 ) ) ;
#199 = LINE ( 'NONE', #240, #239 ) ;
#200 = DIRECTION ( 'NONE',  ( 0.0000000000000000000, -0.7071067811865462400, -0.7071067811865489100 ) ) ;
#201 = CARTESIAN_POINT ( 'NONE',  ( 0.0000000000000000000, 4.000000000000000000, 10.50000000000000000 ) ) ;
#202 = AXIS2_PLACEMENT_3D ( 'NONE', #312, #311, #310 ) ;
#203 = CARTESIAN_POINT ( 'NONE',  ( 100.0000000000000000, 4.000000000000000000, 10.50000000000000000 ) ) ;
#204 = CARTESIAN_POINT ( 'NONE',  ( 100.0000000000000000, 6.749999999999992000, 2.749999999999999100 ) ) ;
#205 = DIRECTION ( 'NONE',  ( -0.0000000000000000000, 0.7071067811865463500, 0.7071067811865487900 ) ) ;
#206 = VECTOR ( 'NONE', #205, 1000.000000000000000 ) ;
#207 = CARTESIAN_POINT ( 'NONE',  ( 100.0000000000000000, 6.749999999999992000, 2.749999999999999100 ) ) ;
#208 = LINE ( 'NONE', #207, #206 ) ;
#209 = CARTESIAN_POINT ( 'NONE',  ( 100.0000000000000000, 6.749999999999992000, 2.749999999999999100 ) ) ;
#210 = PLANE ( 'NONE',  #231 ) ;
#211 = DIRECTION ( 'NONE',  ( 0.0000000000000000000, -1.119176436114068800E-015, -1.000000000000000000 ) ) ;
#212 = DIRECTION ( 'NONE',  ( 0.0000000000000000000, -1.000000000000000000, 1.119176436114068800E-015 ) ) ;
#213 = CARTESIAN_POINT ( 'NONE',  ( 100.0000000000000000, 6.750000000000000900, 10.50000000000000000 ) ) ;
#214 = LINE ( 'NONE', #198, #247 ) ;
#215 = CARTESIAN_POINT ( 'NONE',  ( 100.0000000000000000, 4.000000000000000000, 40.00000000000000000 ) ) ;
#216 = LINE ( 'NONE', #215, #295 ) ;
#217 = AXIS2_PLACEMENT_3D ( 'NONE', #308, #282, #281 ) ;
#218 = CARTESIAN_POINT ( 'NONE',  ( 0.0000000000000000000, 4.000000000000000000, 40.00000000000000000 ) ) ;
#219 = CARTESIAN_POINT ( 'NONE',  ( 0.0000000000000000000, -4.000000000000000000, 10.50000000000000000 ) ) ;
#220 = CARTESIAN_POINT ( 'NONE',  ( 0.0000000000000000000, -6.750000000000000900, 10.50000000000000000 ) ) ;
#221 = DIRECTION ( 'NONE',  ( -1.000000000000000000, -0.0000000000000000000, -0.0000000000000000000 ) ) ;
#222 = VECTOR ( 'NONE', #221, 1000.000000000000000 ) ;
#223 = CARTESIAN_POINT ( 'NONE',  ( 100.0000000000000000, -4.000000000000000000, 10.50000000000000000 ) ) ;
#224 = LINE ( 'NONE', #223, #222 ) ;
#225 = DIRECTION ( 'NONE',  ( -0.0000000000000000000, -1.000000000000000000, -0.0000000000000000000 ) ) ;
#226 = VECTOR ( 'NONE', #225, 1000.000000000000000 ) ;
#227 = CARTESIAN_POINT ( 'NONE',  ( 100.0000000000000000, -4.000000000000000000, 40.00000000000000000 ) ) ;
#228 = DIRECTION ( 'NONE',  ( 0.0000000000000000000, -0.0000000000000000000, -1.000000000000000000 ) ) ;
#229 = DIRECTION ( 'NONE',  ( 0.0000000000000000000, -1.000000000000000000, 0.0000000000000000000 ) ) ;
#230 = DIRECTION ( 'NONE',  ( 0.0000000000000000000, -0.7071067811865489100, 0.7071067811865462400 ) ) ;
#231 = AXIS2_PLACEMENT_3D ( 'NONE', #204, #230, #200 ) ;
#232 = CARTESIAN_POINT ( 'NONE',  ( 100.0000000000000000, 6.749999999999992000, 2.749999999999999100 ) ) ;
#233 = VECTOR ( 'NONE', #149, 1000.000000000000000 ) ;
#234 = LINE ( 'NONE', #209, #233 ) ;
#235 = FACE_OUTER_BOUND ( 'NONE', #52, .T. ) ;
#236 = VECTOR ( 'NONE', #142, 1000.000000000000000 ) ;
#237 = PLANE ( 'NONE',  #162 ) ;
#238 = DIRECTION ( 'NONE',  ( -0.0000000000000000000, 0.7071067811865463500, 0.7071067811865487900 ) ) ;
#239 = VECTOR ( 'NONE', #238, 1000.000000000000000 ) ;
#240 = CARTESIAN_POINT ( 'NONE',  ( 0.0000000000000000000, 6.749999999999992000, 2.749999999999999100 ) ) ;
#241 = CARTESIAN_POINT ( 'NONE',  ( 100.0000000000000000, 4.000000000000000000, 40.00000000000000000 ) ) ;
#242 = CARTESIAN_POINT ( 'NONE',  ( 100.0000000000000000, 4.000000000000000000, 40.00000000000000000 ) ) ;
#243 = DIRECTION ( 'NONE',  ( -0.0000000000000000000, 1.000000000000000000, -0.0000000000000000000 ) ) ;
#244 = VECTOR ( 'NONE', #243, 1000.000000000000000 ) ;
#245 = CARTESIAN_POINT ( 'NONE',  ( 0.0000000000000000000, 4.000000000000001800, -9.164003347034070400E-016 ) ) ;
#246 = CARTESIAN_POINT ( 'NONE',  ( 100.0000000000000000, 6.750000000000000900, 10.50000000000000000 ) ) ;
#247 = VECTOR ( 'NONE', #263, 1000.000000000000000 ) ;
#248 = LINE ( 'NONE', #245, #244 ) ;
#249 = DIRECTION ( 'NONE',  ( -0.0000000000000000000, 1.000000000000000000, -0.0000000000000000000 ) ) ;
#250 = VECTOR ( 'NONE', #249, 1000.000000000000000 ) ;
#251 = CARTESIAN_POINT ( 'NONE',  ( 100.0000000000000000, 4.000000000000001800, -9.164003347034070400E-016 ) ) ;
#252 = LINE ( 'NONE', #251, #250 ) ;
#253 = CARTESIAN_POINT ( 'NONE',  ( 0.0000000000000000000, 4.000000000000001800, -9.164003347034070400E-016 ) ) ;
#254 = DIRECTION ( 'NONE',  ( -0.0000000000000000000, -0.0000000000000000000, 1.000000000000000000 ) ) ;
#255 = VECTOR ( 'NONE', #254, 1000.000000000000000 ) ;
#256 = LINE ( 'NONE', #241, #255 ) ;
#257 = PLANE ( 'NONE',  #265 ) ;
#258 = DIRECTION ( 'NONE',  ( -0.0000000000000000000, -1.000000000000000000, -0.0000000000000000000 ) ) ;
#259 = VECTOR ( 'NONE', #258, 1000.000000000000000 ) ;
#260 = CARTESIAN_POINT ( 'NONE',  ( 0.0000000000000000000, 4.000000000000000000, 10.50000000000000000 ) ) ;
#261 = LINE ( 'NONE', #260, #259 ) ;
#262 = CARTESIAN_POINT ( 'NONE',  ( 100.0000000000000000, -4.000000000000000000, 40.00000000000000000 ) ) ;
#263 = DIRECTION ( 'NONE',  ( -0.0000000000000000000, -0.0000000000000000000, 1.000000000000000000 ) ) ;
#264 = FACE_OUTER_BOUND ( 'NONE', #68, .T. ) ;
#265 = AXIS2_PLACEMENT_3D ( 'NONE', #242, #229, #228 ) ;
#266 = LINE ( 'NONE', #227, #226 ) ;
#267 = CARTESIAN_POINT ( 'NONE',  ( 0.0000000000000000000, -6.749999999999995600, 2.749999999999997300 ) ) ;
#268 = AXIS2_PLACEMENT_3D ( 'NONE', #213, #212, #211 ) ;
#269 = DIRECTION ( 'NONE',  ( 0.0000000000000000000, 0.0000000000000000000, 1.000000000000000000 ) ) ;
#270 = CARTESIAN_POINT ( 'NONE',  ( 100.0000000000000000, -6.749999999999995600, 2.749999999999997300 ) ) ;
#271 = FACE_OUTER_BOUND ( 'NONE', #44, .T. ) ;
#272 = CARTESIAN_POINT ( 'NONE',  ( 100.0000000000000000, -4.000000000000001800, -9.164003347034070400E-016 ) ) ;
#273 = PLANE ( 'NONE',  #293 ) ;
#274 = DIRECTION ( 'NONE',  ( -0.0000000000000000000, 6.715058616684411100E-016, -1.000000000000000000 ) ) ;
#275 = VECTOR ( 'NONE', #274, 1000.000000000000000 ) ;
#276 = PLANE ( 'NONE',  #184 ) ;
#277 = FACE_OUTER_BOUND ( 'NONE', #102, .T. ) ;
#278 = DIRECTION ( 'NONE',  ( -0.0000000000000000000, -0.0000000000000000000, -1.000000000000000000 ) ) ;
#279 = VECTOR ( 'NONE', #278, 1000.000000000000000 ) ;
#280 = CARTESIAN_POINT ( 'NONE',  ( 0.0000000000000000000, -4.000000000000000000, 10.50000000000000000 ) ) ;
#281 = DIRECTION ( 'NONE',  ( 0.0000000000000000000, -0.0000000000000000000, 1.000000000000000000 ) ) ;
#282 = DIRECTION ( 'NONE',  ( 0.0000000000000000000, 1.000000000000000000, 0.0000000000000000000 ) ) ;
#283 = CARTESIAN_POINT ( 'NONE',  ( 0.0000000000000000000, -6.749999999999995600, 2.749999999999997300 ) ) ;
#284 = CARTESIAN_POINT ( 'NONE',  ( 0.0000000000000000000, -6.750000000000000900, 10.50000000000000000 ) ) ;
#285 = LINE ( 'NONE', #280, #279 ) ;
#286 = CARTESIAN_POINT ( 'NONE',  ( 100.0000000000000000, -4.000000000000000000, 40.00000000000000000 ) ) ;
#287 = LINE ( 'NONE', #283, #275 ) ;
#288 = FACE_OUTER_BOUND ( 'NONE', #99, .T. ) ;
#289 = DIRECTION ( 'NONE',  ( -0.0000000000000000000, -1.000000000000000000, -0.0000000000000000000 ) ) ;
#290 = VECTOR ( 'NONE', #289, 1000.000000000000000 ) ;
#291 = CARTESIAN_POINT ( 'NONE',  ( 0.0000000000000000000, -4.000000000000000000, 40.00000000000000000 ) ) ;
#292 = LINE ( 'NONE', #291, #290 ) ;
#293 = AXIS2_PLACEMENT_3D ( 'NONE', #286, #307, #306 ) ;
#294 = DIRECTION ( 'NONE',  ( -1.000000000000000000, -0.0000000000000000000, -0.0000000000000000000 ) ) ;
#295 = VECTOR ( 'NONE', #294, 1000.000000000000000 ) ;
#296 = FACE_OUTER_BOUND ( 'NONE', #22, .T. ) ;
#297 = LINE ( 'NONE', #193, #192 ) ;
#298 = DIRECTION ( 'NONE',  ( -0.0000000000000000000, -1.000000000000000000, -0.0000000000000000000 ) ) ;
#299 = VECTOR ( 'NONE', #298, 1000.000000000000000 ) ;
#300 = LINE ( 'NONE', #220, #299 ) ;
#301 = DIRECTION ( 'NONE',  ( -0.0000000000000000000, 1.119176436114068800E-015, 1.000000000000000000 ) ) ;
#302 = VECTOR ( 'NONE', #301, 1000.000000000000000 ) ;
#303 = LINE ( 'NONE', #305, #302 ) ;
#304 = PLANE ( 'NONE',  #217 ) ;
#305 = CARTESIAN_POINT ( 'NONE',  ( 0.0000000000000000000, 6.750000000000000900, 10.50000000000000000 ) ) ;
#306 = DIRECTION ( 'NONE',  ( -1.000000000000000000, 0.0000000000000000000, -0.0000000000000000000 ) ) ;
#307 = DIRECTION ( 'NONE',  ( 0.0000000000000000000, 0.0000000000000000000, -1.000000000000000000 ) ) ;
#308 = CARTESIAN_POINT ( 'NONE',  ( 100.0000000000000000, -4.000000000000000000, 10.50000000000000000 ) ) ;
#309 = CARTESIAN_POINT ( 'NONE',  ( 0.0000000000000000000, 6.749999999999992000, 2.749999999999999100 ) ) ;
#310 = DIRECTION ( 'NONE',  ( 0.0000000000000000000, 0.0000000000000000000, 1.000000000000000000 ) ) ;
#311 = DIRECTION ( 'NONE',  ( -1.000000000000000000, 0.0000000000000000000, 0.0000000000000000000 ) ) ;
#312 = CARTESIAN_POINT ( 'NONE',  ( 100.0000000000000000, 4.000000000000000000, 40.00000000000000000 ) ) ;
#313 = CARTESIAN_POINT ( 'NONE',  ( 100.0000000000000000, 4.000000000000000000, 10.50000000000000000 ) ) ;
#314 = APPLICATION_CONTEXT ( 'configuration controlled 3d designs of mechanical parts and assemblies' ) ;
#315 = UNCERTAINTY_MEASURE_WITH_UNIT (LENGTH_MEASURE( 1.000000000000000100E-005 ), #346, 'distance_accuracy_value', 'NONE');
#316 =( NAMED_UNIT ( * ) SI_UNIT ( $, .STERADIAN. ) SOLID_ANGLE_UNIT ( ) );
#317 = CC_DESIGN_PERSON_AND_ORGANIZATION_ASSIGNMENT ( #319, #318, ( #89 ) ) ;
#318 = PERSON_AND_ORGANIZATION_ROLE ( 'design_owner' ) ;
#319 = PERSON_AND_ORGANIZATION ( #326, #320 ) ;
#320 = ORGANIZATION ( 'NON SPECIFICATO', 'NON SPECIFICATO', '' ) ;
#321 = LINE ( 'NONE', #332, #357 ) ;
#322 = CARTESIAN_POINT ( 'NONE',  ( 100.0000000000000000, -6.750000000000000900, 10.50000000000000000 ) ) ;
#323 = LINE ( 'NONE', #348, #354 ) ;
#324 = AXIS2_PLACEMENT_3D ( 'NONE', #361, #360, #359 ) ;
#325 = DIRECTION ( 'NONE',  ( 1.000000000000000000, 0.0000000000000000000, 0.0000000000000000000 ) ) ;
#326 = PERSON ( 'NON SPECIFICATO', 'NON SPECIFICATO', 'NON SPECIFICATO', ('NON SPECIFICATO'), ('NON SPECIFICATO'), ('NON SPECIFICATO') ) ;
#327 = DIRECTION ( 'NONE',  ( 0.0000000000000000000, -6.715058616684411100E-016, 1.000000000000000000 ) ) ;
#328 = AXIS2_PLACEMENT_3D ( 'NONE', #340, #329, #325 ) ;
#329 = DIRECTION ( 'NONE',  ( 0.0000000000000000000, 0.0000000000000000000, 1.000000000000000000 ) ) ;
#330 = DIRECTION ( 'NONE',  ( -0.0000000000000000000, 1.000000000000000000, 6.715058616684411100E-016 ) ) ;
#331 = CARTESIAN_POINT ( 'NONE',  ( 100.0000000000000000, -6.749999999999995600, 2.749999999999997300 ) ) ;
#332 = CARTESIAN_POINT ( 'NONE',  ( 100.0000000000000000, -4.000000000000000000, 10.50000000000000000 ) ) ;
#333 = PLANE ( 'NONE',  #358 ) ;
#334 = DIRECTION ( 'NONE',  ( -0.0000000000000000000, -0.0000000000000000000, -1.000000000000000000 ) ) ;
#335 = AXIS2_PLACEMENT_3D ( 'NONE', #356, #342, #341 ) ;
#336 = DIRECTION ( 'NONE',  ( -1.000000000000000000, -0.0000000000000000000, -0.0000000000000000000 ) ) ;
#337 = VECTOR ( 'NONE', #336, 1000.000000000000000 ) ;
#338 = CARTESIAN_POINT ( 'NONE',  ( 100.0000000000000000, -4.000000000000000000, 40.00000000000000000 ) ) ;
#339 = LINE ( 'NONE', #338, #337 ) ;
#340 = CARTESIAN_POINT ( 'NONE',  ( 0.0000000000000000000, 0.0000000000000000000, 0.0000000000000000000 ) ) ;
#341 = DIRECTION ( 'NONE',  ( -1.000000000000000000, 0.0000000000000000000, -0.0000000000000000000 ) ) ;
#342 = DIRECTION ( 'NONE',  ( 0.0000000000000000000, 0.0000000000000000000, -1.000000000000000000 ) ) ;
#343 = CARTESIAN_POINT ( 'NONE',  ( 0.0000000000000000000, -4.000000000000000000, 40.00000000000000000 ) ) ;
#344 = CARTESIAN_POINT ( 'NONE',  ( 100.0000000000000000, 4.000000000000000000, 40.00000000000000000 ) ) ;
#345 =( NAMED_UNIT ( * ) PLANE_ANGLE_UNIT ( ) SI_UNIT ( $, .RADIAN. ) );
#346 =( LENGTH_UNIT ( ) NAMED_UNIT ( * ) SI_UNIT ( .MILLI., .METRE. ) );
#347 = DIRECTION ( 'NONE',  ( -1.000000000000000000, -0.0000000000000000000, -0.0000000000000000000 ) ) ;
#348 = CARTESIAN_POINT ( 'NONE',  ( 100.0000000000000000, -6.750000000000000900, 10.50000000000000000 ) ) ;
#349 = FACE_OUTER_BOUND ( 'NONE', #138, .T. ) ;
#350 = FACE_OUTER_BOUND ( 'NONE', #115, .T. ) ;
#351 = PLANE ( 'NONE',  #324 ) ;
#352 = PLANE ( 'NONE',  #335 ) ;
#353 = FACE_OUTER_BOUND ( 'NONE', #134, .T. ) ;
#354 = VECTOR ( 'NONE', #347, 1000.000000000000000 ) ;
#355 = CARTESIAN_POINT ( 'NONE',  ( 100.0000000000000000, -4.000000000000000000, 10.50000000000000000 ) ) ;
#356 = CARTESIAN_POINT ( 'NONE',  ( 100.0000000000000000, -6.750000000000000900, 10.50000000000000000 ) ) ;
#357 = VECTOR ( 'NONE', #334, 1000.000000000000000 ) ;
#358 = AXIS2_PLACEMENT_3D ( 'NONE', #331, #330, #327 ) ;
#359 = DIRECTION ( 'NONE',  ( 1.000000000000000000, 0.0000000000000000000, 0.0000000000000000000 ) ) ;
#360 = DIRECTION ( 'NONE',  ( -0.0000000000000000000, 0.0000000000000000000, 1.000000000000000000 ) ) ;
#361 = CARTESIAN_POINT ( 'NONE',  ( 100.0000000000000000, 4.000000000000001800, -9.164003347034070400E-016 ) ) ;
#362 = ADVANCED_BREP_SHAPE_REPRESENTATION ( '084.514.002', ( #64, #328 ), #363 ) ;
#363 =( GEOMETRIC_REPRESENTATION_CONTEXT ( 3 ) GLOBAL_UNCERTAINTY_ASSIGNED_CONTEXT ( ( #315 ) ) GLOBAL_UNIT_ASSIGNED_CONTEXT ( ( #346, #345, #316 ) ) REPRESENTATION_CONTEXT ( 'NONE', 'WORKASPACE' ) );
#364 = DIRECTION ( 'NONE',  ( -1.000000000000000000, -0.0000000000000000000, -0.0000000000000000000 ) ) ;
#365 = VECTOR ( 'NONE', #364, 1000.000000000000000 ) ;
#366 = CARTESIAN_POINT ( 'NONE',  ( 100.0000000000000000, -6.749999999999995600, 2.749999999999997300 ) ) ;
#367 = LINE ( 'NONE', #366, #365 ) ;
#368 = APPROVAL_STATUS ( 'not_yet_approved' ) ;
#369 = PRODUCT_DEFINITION ( 'NON CONOSCIUTO', '', #435, #386 ) ;
#370 = APPLICATION_CONTEXT ( 'configuration controlled 3d designs of mechanical parts and assemblies' ) ;
#371 = COORDINATED_UNIVERSAL_TIME_OFFSET ( 1, 0, .AHEAD. ) ;
#372 = CC_DESIGN_PERSON_AND_ORGANIZATION_ASSIGNMENT ( #374, #373, ( #369 ) ) ;
#373 = PERSON_AND_ORGANIZATION_ROLE ( 'creator' ) ;
#374 = PERSON_AND_ORGANIZATION ( #326, #320 ) ;
#375 = CC_DESIGN_DATE_AND_TIME_ASSIGNMENT ( #377, #376, ( #369 ) ) ;
#376 = DATE_TIME_ROLE ( 'creation_date' ) ;
#377 = DATE_AND_TIME ( #378, #379 ) ;
#378 = CALENDAR_DATE ( 2013, 28, 1 ) ;
#379 = LOCAL_TIME ( 14, 16, 44.00000000000000000, #371 ) ;
#380 = APPLICATION_PROTOCOL_DEFINITION ( 'international standard', 'config_control_design', 1994, #370 ) ;
#381 = CC_DESIGN_APPROVAL ( #390, ( #369 ) ) ;
#382 = APPROVAL_DATE_TIME ( #383, #390 ) ;
#383 = DATE_AND_TIME ( #384, #385 ) ;
#384 = CALENDAR_DATE ( 2013, 28, 1 ) ;
#385 = LOCAL_TIME ( 14, 16, 44.00000000000000000, #387 ) ;
#386 = DESIGN_CONTEXT ( 'detailed design', #370, 'design' ) ;
#387 = COORDINATED_UNIVERSAL_TIME_OFFSET ( 1, 0, .AHEAD. ) ;
#388 = APPROVAL_PERSON_ORGANIZATION ( #391, #390, #389 ) ;
#389 = APPROVAL_ROLE ( '' ) ;
#390 = APPROVAL ( #368, 'NON SPECIFICATO' ) ;
#391 = PERSON_AND_ORGANIZATION ( #326, #320 ) ;
#392 = SHAPE_DEFINITION_REPRESENTATION ( #409, #362 ) ;
#393 = PERSON_AND_ORGANIZATION ( #326, #320 ) ;
#394 = APPROVAL ( #434, 'NON SPECIFICATO' ) ;
#395 = CC_DESIGN_APPROVAL ( #394, ( #435 ) ) ;
#396 = APPROVAL_DATE_TIME ( #402, #394 ) ;
#397 = CC_DESIGN_PERSON_AND_ORGANIZATION_ASSIGNMENT ( #399, #398, ( #435 ) ) ;
#398 = PERSON_AND_ORGANIZATION_ROLE ( 'design_supplier' ) ;
#399 = PERSON_AND_ORGANIZATION ( #326, #320 ) ;
#400 = CC_DESIGN_PERSON_AND_ORGANIZATION_ASSIGNMENT ( #401, #404, ( #435 ) ) ;
#401 = PERSON_AND_ORGANIZATION ( #326, #320 ) ;
#402 = DATE_AND_TIME ( #403, #406 ) ;
#403 = CALENDAR_DATE ( 2013, 28, 1 ) ;
#404 = PERSON_AND_ORGANIZATION_ROLE ( 'creator' ) ;
#405 = APPROVAL_ROLE ( '' ) ;
#406 = LOCAL_TIME ( 14, 16, 44.00000000000000000, #407 ) ;
#407 = COORDINATED_UNIVERSAL_TIME_OFFSET ( 1, 0, .AHEAD. ) ;
#408 = APPROVAL_PERSON_ORGANIZATION ( #393, #394, #405 ) ;
#409 = PRODUCT_DEFINITION_SHAPE ( 'NONE', 'NONE',  #369 ) ;
#410 = PRODUCT_RELATED_PRODUCT_CATEGORY ( 'detail', '', ( #89 ) ) ;
#411 = CC_DESIGN_SECURITY_CLASSIFICATION ( #432, ( #435 ) ) ;
#412 = CC_DESIGN_APPROVAL ( #420, ( #432 ) ) ;
#413 = APPROVAL_DATE_TIME ( #414, #420 ) ;
#414 = DATE_AND_TIME ( #415, #416 ) ;
#415 = CALENDAR_DATE ( 2013, 28, 1 ) ;
#416 = LOCAL_TIME ( 14, 16, 44.00000000000000000, #417 ) ;
#417 = COORDINATED_UNIVERSAL_TIME_OFFSET ( 1, 0, .AHEAD. ) ;
#418 = APPROVAL_PERSON_ORGANIZATION ( #422, #420, #419 ) ;
#419 = APPROVAL_ROLE ( '' ) ;
#420 = APPROVAL ( #421, 'NON SPECIFICATO' ) ;
#421 = APPROVAL_STATUS ( 'not_yet_approved' ) ;
#422 = PERSON_AND_ORGANIZATION ( #326, #320 ) ;
#423 = CC_DESIGN_DATE_AND_TIME_ASSIGNMENT ( #425, #424, ( #432 ) ) ;
#424 = DATE_TIME_ROLE ( 'classification_date' ) ;
#425 = DATE_AND_TIME ( #426, #427 ) ;
#426 = CALENDAR_DATE ( 2013, 28, 1 ) ;
#427 = LOCAL_TIME ( 14, 16, 44.00000000000000000, #428 ) ;
#428 = COORDINATED_UNIVERSAL_TIME_OFFSET ( 1, 0, .AHEAD. ) ;
#429 = CC_DESIGN_PERSON_AND_ORGANIZATION_ASSIGNMENT ( #431, #430, ( #432 ) ) ;
#430 = PERSON_AND_ORGANIZATION_ROLE ( 'classification_officer' ) ;
#431 = PERSON_AND_ORGANIZATION ( #326, #320 ) ;
#432 = SECURITY_CLASSIFICATION ( '', '', #433 ) ;
#433 = SECURITY_CLASSIFICATION_LEVEL ( 'unclassified' ) ;
#434 = APPROVAL_STATUS ( 'not_yet_approved' ) ;
#435 = PRODUCT_DEFINITION_FORMATION_WITH_SPECIFIED_SOURCE ( 'TUTTO', '', #89, .NOT_KNOWN. ) ;
ENDSEC;
END-ISO-10303-21;
