ISO-10303-21;
HEADER;
/* Generated by software containing ST-Developer
 * from STEP Tools, Inc. (www.steptools.com) 
 */

FILE_DESCRIPTION(
/* description */ (''),
/* implementation_level */ '2;1');

FILE_NAME(
/* name */ 
'Z:/Modular Solution/A-Profile System/Parts/Hardware/M6SMW-0/M6SMW-0 v
1.step',
/* time_stamp */ '2020-10-12T09:29:59-04:00',
/* author */ (''),
/* organization */ (''),
/* preprocessor_version */ 'ST-DEVELOPER v18.1',
/* originating_system */ 'Autodesk Translation Framework v9.3.0.1241',
/* authorisation */ '');

FILE_SCHEMA (('AUTOMOTIVE_DESIGN { 1 0 10303 214 3 1 1 }'));
ENDSEC;

DATA;
#10=MECHANICAL_DESIGN_GEOMETRIC_PRESENTATION_REPRESENTATION('',(#17),#139);
#11=ITEM_DEFINED_TRANSFORMATION($,$,#83,#92);
#12=(
REPRESENTATION_RELATIONSHIP($,$,#150,#149)
REPRESENTATION_RELATIONSHIP_WITH_TRANSFORMATION(#11)
SHAPE_REPRESENTATION_RELATIONSHIP()
);
#13=CONTEXT_DEPENDENT_SHAPE_REPRESENTATION(#12,#148);
#14=NEXT_ASSEMBLY_USAGE_OCCURRENCE('98689A115:1','98689A115:1',
'98689A115:1',#152,#153,'98689A115:1');
#15=SHAPE_REPRESENTATION_RELATIONSHIP('SRR','None',#150,#16);
#16=ADVANCED_BREP_SHAPE_REPRESENTATION('',(#18),#138);
#17=STYLED_ITEM('',(#164),#18);
#18=MANIFOLD_SOLID_BREP('Body1',#69);
#19=LINE('',#126,#21);
#20=LINE('',#131,#22);
#21=VECTOR('',#105,3.2);
#22=VECTOR('',#112,5.5);
#23=CYLINDRICAL_SURFACE('',#87,3.2);
#24=CYLINDRICAL_SURFACE('',#89,6.2);
#25=FACE_BOUND('',#32,.T.);
#26=FACE_BOUND('',#36,.T.);
#27=FACE_OUTER_BOUND('',#31,.T.);
#28=FACE_OUTER_BOUND('',#33,.T.);
#29=FACE_OUTER_BOUND('',#34,.T.);
#30=FACE_OUTER_BOUND('',#35,.T.);
#31=EDGE_LOOP('',(#51));
#32=EDGE_LOOP('',(#52));
#33=EDGE_LOOP('',(#53,#54,#55,#56));
#34=EDGE_LOOP('',(#57,#58,#59,#60));
#35=EDGE_LOOP('',(#61));
#36=EDGE_LOOP('',(#62));
#37=CIRCLE('',#85,6.2);
#38=CIRCLE('',#86,3.2);
#39=CIRCLE('',#88,3.2);
#40=CIRCLE('',#90,6.2);
#41=VERTEX_POINT('',#120);
#42=VERTEX_POINT('',#122);
#43=VERTEX_POINT('',#125);
#44=VERTEX_POINT('',#129);
#45=EDGE_CURVE('',#41,#41,#37,.T.);
#46=EDGE_CURVE('',#42,#42,#38,.T.);
#47=EDGE_CURVE('',#42,#43,#19,.T.);
#48=EDGE_CURVE('',#43,#43,#39,.T.);
#49=EDGE_CURVE('',#44,#44,#40,.F.);
#50=EDGE_CURVE('',#44,#41,#20,.T.);
#51=ORIENTED_EDGE('',*,*,#45,.T.);
#52=ORIENTED_EDGE('',*,*,#46,.T.);
#53=ORIENTED_EDGE('',*,*,#46,.F.);
#54=ORIENTED_EDGE('',*,*,#47,.T.);
#55=ORIENTED_EDGE('',*,*,#48,.F.);
#56=ORIENTED_EDGE('',*,*,#47,.F.);
#57=ORIENTED_EDGE('',*,*,#49,.T.);
#58=ORIENTED_EDGE('',*,*,#50,.T.);
#59=ORIENTED_EDGE('',*,*,#45,.F.);
#60=ORIENTED_EDGE('',*,*,#50,.F.);
#61=ORIENTED_EDGE('',*,*,#49,.F.);
#62=ORIENTED_EDGE('',*,*,#48,.T.);
#63=PLANE('',#84);
#64=PLANE('',#91);
#65=ADVANCED_FACE('',(#27,#25),#63,.T.);
#66=ADVANCED_FACE('',(#28),#23,.F.);
#67=ADVANCED_FACE('',(#29),#24,.T.);
#68=ADVANCED_FACE('',(#30,#26),#64,.F.);
#69=CLOSED_SHELL('',(#65,#66,#67,#68));
#70=DERIVED_UNIT_ELEMENT(#72,1.);
#71=DERIVED_UNIT_ELEMENT(#141,3.);
#72=(
MASS_UNIT()
NAMED_UNIT(*)
SI_UNIT(.KILO.,.GRAM.)
);
#73=DERIVED_UNIT((#70,#71));
#74=MEASURE_REPRESENTATION_ITEM('density measure',
POSITIVE_RATIO_MEASURE(7850.),#73);
#75=PROPERTY_DEFINITION_REPRESENTATION(#80,#77);
#76=PROPERTY_DEFINITION_REPRESENTATION(#81,#78);
#77=REPRESENTATION('material name',(#79),#138);
#78=REPRESENTATION('density',(#74),#138);
#79=DESCRIPTIVE_REPRESENTATION_ITEM('Steel','Steel');
#80=PROPERTY_DEFINITION('material property','material name',#153);
#81=PROPERTY_DEFINITION('material property','density of part',#153);
#82=AXIS2_PLACEMENT_3D('placement',#117,#93,#94);
#83=AXIS2_PLACEMENT_3D('placement',#118,#95,#96);
#84=AXIS2_PLACEMENT_3D('',#119,#97,#98);
#85=AXIS2_PLACEMENT_3D('',#121,#99,#100);
#86=AXIS2_PLACEMENT_3D('',#123,#101,#102);
#87=AXIS2_PLACEMENT_3D('',#124,#103,#104);
#88=AXIS2_PLACEMENT_3D('',#127,#106,#107);
#89=AXIS2_PLACEMENT_3D('',#128,#108,#109);
#90=AXIS2_PLACEMENT_3D('',#130,#110,#111);
#91=AXIS2_PLACEMENT_3D('',#132,#113,#114);
#92=AXIS2_PLACEMENT_3D('',#133,#115,#116);
#93=DIRECTION('axis',(0.,0.,1.));
#94=DIRECTION('refdir',(1.,0.,0.));
#95=DIRECTION('axis',(0.,0.,1.));
#96=DIRECTION('refdir',(1.,0.,0.));
#97=DIRECTION('center_axis',(0.,0.,1.));
#98=DIRECTION('ref_axis',(1.,0.,0.));
#99=DIRECTION('center_axis',(0.,0.,1.));
#100=DIRECTION('ref_axis',(-1.,0.,0.));
#101=DIRECTION('center_axis',(0.,0.,-1.));
#102=DIRECTION('ref_axis',(-1.,0.,0.));
#103=DIRECTION('center_axis',(0.,0.,-1.));
#104=DIRECTION('ref_axis',(-1.,0.,0.));
#105=DIRECTION('',(0.,0.,-1.));
#106=DIRECTION('center_axis',(0.,0.,1.));
#107=DIRECTION('ref_axis',(1.,0.,0.));
#108=DIRECTION('center_axis',(0.,0.,-1.));
#109=DIRECTION('ref_axis',(-1.,0.,0.));
#110=DIRECTION('center_axis',(0.,0.,-1.));
#111=DIRECTION('ref_axis',(-1.,0.,0.));
#112=DIRECTION('',(0.,0.,1.));
#113=DIRECTION('center_axis',(0.,0.,1.));
#114=DIRECTION('ref_axis',(1.,0.,0.));
#115=DIRECTION('',(0.,0.,1.));
#116=DIRECTION('',(1.,0.,0.));
#117=CARTESIAN_POINT('',(0.,0.,0.));
#118=CARTESIAN_POINT('',(0.,0.,0.));
#119=CARTESIAN_POINT('Origin',(0.,0.,1.1));
#120=CARTESIAN_POINT('',(6.2,-7.59281015471359E-16,1.1));
#121=CARTESIAN_POINT('Origin',(0.,0.,1.1));
#122=CARTESIAN_POINT('',(3.2,3.91886975727153E-16,1.1));
#123=CARTESIAN_POINT('Origin',(0.,0.,1.1));
#124=CARTESIAN_POINT('Origin',(0.,0.,1.8));
#125=CARTESIAN_POINT('',(3.2,-3.91886975727153E-16,-2.77555756156289E-16));
#126=CARTESIAN_POINT('',(3.2,-3.91886975727153E-16,1.8));
#127=CARTESIAN_POINT('Origin',(0.,0.,0.));
#128=CARTESIAN_POINT('Origin',(0.,0.,1.8));
#129=CARTESIAN_POINT('',(6.2,-7.59281015471359E-16,0.));
#130=CARTESIAN_POINT('Origin',(0.,0.,0.));
#131=CARTESIAN_POINT('',(6.2,-7.59281015471359E-16,1.8));
#132=CARTESIAN_POINT('Origin',(0.,0.,0.));
#133=CARTESIAN_POINT('',(0.,0.,0.));
#134=UNCERTAINTY_MEASURE_WITH_UNIT(LENGTH_MEASURE(0.01),#140,
'DISTANCE_ACCURACY_VALUE',
'Maximum model space distance between geometric entities at asserted c
onnectivities');
#135=UNCERTAINTY_MEASURE_WITH_UNIT(LENGTH_MEASURE(0.01),#140,
'DISTANCE_ACCURACY_VALUE',
'Maximum model space distance between geometric entities at asserted c
onnectivities');
#136=UNCERTAINTY_MEASURE_WITH_UNIT(LENGTH_MEASURE(0.01),#140,
'DISTANCE_ACCURACY_VALUE',
'Maximum model space distance between geometric entities at asserted c
onnectivities');
#137=(
GEOMETRIC_REPRESENTATION_CONTEXT(3)
GLOBAL_UNCERTAINTY_ASSIGNED_CONTEXT((#134))
GLOBAL_UNIT_ASSIGNED_CONTEXT((#140,#142,#143))
REPRESENTATION_CONTEXT('','3D')
);
#138=(
GEOMETRIC_REPRESENTATION_CONTEXT(3)
GLOBAL_UNCERTAINTY_ASSIGNED_CONTEXT((#135))
GLOBAL_UNIT_ASSIGNED_CONTEXT((#140,#142,#143))
REPRESENTATION_CONTEXT('','3D')
);
#139=(
GEOMETRIC_REPRESENTATION_CONTEXT(3)
GLOBAL_UNCERTAINTY_ASSIGNED_CONTEXT((#136))
GLOBAL_UNIT_ASSIGNED_CONTEXT((#140,#142,#143))
REPRESENTATION_CONTEXT('','3D')
);
#140=(
LENGTH_UNIT()
NAMED_UNIT(*)
SI_UNIT(.MILLI.,.METRE.)
);
#141=(
LENGTH_UNIT()
NAMED_UNIT(*)
SI_UNIT($,.METRE.)
);
#142=(
NAMED_UNIT(*)
PLANE_ANGLE_UNIT()
SI_UNIT($,.RADIAN.)
);
#143=(
NAMED_UNIT(*)
SI_UNIT($,.STERADIAN.)
SOLID_ANGLE_UNIT()
);
#144=SHAPE_DEFINITION_REPRESENTATION(#146,#149);
#145=SHAPE_DEFINITION_REPRESENTATION(#147,#150);
#146=PRODUCT_DEFINITION_SHAPE('',$,#152);
#147=PRODUCT_DEFINITION_SHAPE('',$,#153);
#148=PRODUCT_DEFINITION_SHAPE($,$,#14);
#149=SHAPE_REPRESENTATION('',(#82,#92),#137);
#150=SHAPE_REPRESENTATION('',(#83),#138);
#151=PRODUCT_DEFINITION_CONTEXT('part definition',#159,'design');
#152=PRODUCT_DEFINITION('M6SMW-0','M6SMW-0 v1',#154,#151);
#153=PRODUCT_DEFINITION('98689A115','98689A115',#155,#151);
#154=PRODUCT_DEFINITION_FORMATION('',$,#161);
#155=PRODUCT_DEFINITION_FORMATION('',$,#162);
#156=PRODUCT_RELATED_PRODUCT_CATEGORY('M6SMW-0 v1','M6SMW-0 v1',(#161));
#157=PRODUCT_RELATED_PRODUCT_CATEGORY('98689A115','98689A115',(#162));
#158=APPLICATION_PROTOCOL_DEFINITION('international standard',
'automotive_design',2009,#159);
#159=APPLICATION_CONTEXT(
'Core Data for Automotive Mechanical Design Process');
#160=PRODUCT_CONTEXT('part definition',#159,'mechanical');
#161=PRODUCT('M6SMW-0','M6SMW-0 v1',$,(#160));
#162=PRODUCT('98689A115','98689A115',$,(#160));
#163=PRESENTATION_STYLE_ASSIGNMENT((#165));
#164=PRESENTATION_STYLE_ASSIGNMENT((#166));
#165=SURFACE_STYLE_USAGE(.BOTH.,#167);
#166=SURFACE_STYLE_USAGE(.BOTH.,#168);
#167=SURFACE_SIDE_STYLE('',(#169));
#168=SURFACE_SIDE_STYLE('',(#170));
#169=SURFACE_STYLE_FILL_AREA(#171);
#170=SURFACE_STYLE_FILL_AREA(#172);
#171=FILL_AREA_STYLE('Steel - Satin',(#173));
#172=FILL_AREA_STYLE('Stainless Steel - Polished',(#174));
#173=FILL_AREA_STYLE_COLOUR('Steel - Satin',#175);
#174=FILL_AREA_STYLE_COLOUR('Stainless Steel - Polished',#176);
#175=COLOUR_RGB('Steel - Satin',0.627450980392157,0.627450980392157,0.627450980392157);
#176=COLOUR_RGB('Stainless Steel - Polished',0.796078431372549,0.796078431372549,
0.796078431372549);
ENDSEC;
END-ISO-10303-21;
