ISO-10303-21;
HEADER;
FILE_DESCRIPTION (( 'STEP AP203' ),
    '1' );
FILE_NAME ('91128A311_Black-Oxide Steel Square Washer.STEP',
    '2021-09-09T15:06:33',
    ( 'Administrator' ),
    ( 'Managed by Terraform' ),
    'SwSTEP 2.0',
    'SolidWorks 2017',
    '' );
FILE_SCHEMA (( 'CONFIG_CONTROL_DESIGN' ));
ENDSEC;

DATA;
#1 = LINE ( 'NONE', #158, #121 ) ;
#2 = ADVANCED_FACE ( 'NONE', ( #79, #175 ), #32, .T. ) ;
#3 = CARTESIAN_POINT ( 'NONE',  ( -4.500000000000014200, -6.938893903907228400E-015, 0.0000000000000000000 ) ) ;
#4 = EDGE_CURVE ( 'NONE', #60, #131, #75, .T. ) ;
#5 = DIRECTION ( 'NONE',  ( -0.0000000000000000000, -1.000000000000000000, -0.0000000000000000000 ) ) ;
#6 = COORDINATED_UNIVERSAL_TIME_OFFSET ( 6, 0, .BEHIND. ) ;
#7 = ORIENTED_EDGE ( 'NONE', *, *, #181, .F. ) ;
#8 = PLANE ( 'NONE',  #61 ) ;
#9 = PRODUCT_DEFINITION ( 'UNKNOWN', '', #300, #242 ) ;
#10 = FACE_BOUND ( 'NONE', #199, .T. ) ;
#11 = CARTESIAN_POINT ( 'NONE',  ( -25.00000000000000400, -25.00000000000000400, 6.730000000000000400 ) ) ;
#12 = EDGE_CURVE ( 'NONE', #283, #118, #276, .T. ) ;
#13 = VECTOR ( 'NONE', #5, 1000.000000000000000 ) ;
#14 = CARTESIAN_POINT ( 'NONE',  ( -1.387778780781445700E-014, -6.938893903907228400E-015, 6.730000000000000400 ) ) ;
#15 = DIRECTION ( 'NONE',  ( -0.0000000000000000000, -0.0000000000000000000, -1.000000000000000000 ) ) ;
#16 = LOCAL_TIME ( 10, 6, 33.00000000000000000, #233 ) ;
#17 = AXIS2_PLACEMENT_3D ( 'NONE', #123, #272, #299 ) ;
#18 = ORIENTED_EDGE ( 'NONE', *, *, #290, .T. ) ;
#19 = ORIENTED_EDGE ( 'NONE', *, *, #215, .F. ) ;
#20 = ADVANCED_FACE ( 'NONE', ( #308 ), #266, .F. ) ;
#21 = APPROVAL_ROLE ( '' ) ;
#22 = PRODUCT_DEFINITION_SHAPE ( 'NONE', 'NONE',  #9 ) ;
#23 = LINE ( 'NONE', #154, #185 ) ;
#24 = EDGE_LOOP ( 'NONE', ( #183, #190, #269, #88 ) ) ;
#25 = APPROVAL ( #107, 'UNSPECIFIED' ) ;
#26 = APPROVAL_STATUS ( 'not_yet_approved' ) ;
#27 = VERTEX_POINT ( 'NONE', #218 ) ;
#28 = CARTESIAN_POINT ( 'NONE',  ( -25.00000000000000400, 24.99999999999999600, 6.730000000000000400 ) ) ;
#29 = ORIENTED_EDGE ( 'NONE', *, *, #215, .T. ) ;
#30 = CC_DESIGN_DATE_AND_TIME_ASSIGNMENT ( #151, #281, ( #84 ) ) ;
#31 = CARTESIAN_POINT ( 'NONE',  ( -1.387778780781445700E-014, -6.938893903907228400E-015, 0.0000000000000000000 ) ) ;
#32 = PLANE ( 'NONE',  #292 ) ;
#33 = EDGE_CURVE ( 'NONE', #283, #119, #267, .T. ) ;
#34 = CALENDAR_DATE ( 2021, 9, 9 ) ;
#35 = ORIENTED_EDGE ( 'NONE', *, *, #239, .T. ) ;
#36 = VECTOR ( 'NONE', #109, 1000.000000000000000 ) ;
#37 =( GEOMETRIC_REPRESENTATION_CONTEXT ( 3 ) GLOBAL_UNCERTAINTY_ASSIGNED_CONTEXT ( ( #294 ) ) GLOBAL_UNIT_ASSIGNED_CONTEXT ( ( #274, #277, #64 ) ) REPRESENTATION_CONTEXT ( 'NONE', 'WORKASPACE' ) );
#38 = CARTESIAN_POINT ( 'NONE',  ( 24.99999999999999600, 24.99999999999999600, 0.0000000000000000000 ) ) ;
#39 = PERSON_AND_ORGANIZATION ( #287, #251 ) ;
#40 = ORIENTED_EDGE ( 'NONE', *, *, #239, .F. ) ;
#41 = APPLICATION_PROTOCOL_DEFINITION ( 'international standard', 'config_control_design', 1994, #134 ) ;
#42 = CC_DESIGN_APPROVAL ( #214, ( #300 ) ) ;
#43 = DIRECTION ( 'NONE',  ( -1.000000000000000000, -0.0000000000000000000, -0.0000000000000000000 ) ) ;
#44 = CARTESIAN_POINT ( 'NONE',  ( -25.00000000000000400, -25.00000000000000400, 6.730000000000000400 ) ) ;
#45 = AXIS2_PLACEMENT_3D ( 'NONE', #94, #289, #147 ) ;
#46 = LINE ( 'NONE', #142, #13 ) ;
#47 = DIRECTION ( 'NONE',  ( 0.0000000000000000000, 0.0000000000000000000, 1.000000000000000000 ) ) ;
#48 = LOCAL_TIME ( 10, 6, 33.00000000000000000, #99 ) ;
#49 = APPROVAL_DATE_TIME ( #268, #25 ) ;
#50 = VECTOR ( 'NONE', #261, 1000.000000000000000 ) ;
#51 = PERSON_AND_ORGANIZATION_ROLE ( 'design_supplier' ) ;
#52 = AXIS2_PLACEMENT_3D ( 'NONE', #207, #160, #232 ) ;
#53 = DIRECTION ( 'NONE',  ( 0.0000000000000000000, 0.0000000000000000000, 1.000000000000000000 ) ) ;
#54 = ORIENTED_EDGE ( 'NONE', *, *, #4, .T. ) ;
#55 = ORIENTED_EDGE ( 'NONE', *, *, #205, .T. ) ;
#56 = VECTOR ( 'NONE', #263, 1000.000000000000000 ) ;
#57 = ORIENTED_EDGE ( 'NONE', *, *, #4, .F. ) ;
#58 = EDGE_CURVE ( 'NONE', #119, #227, #46, .T. ) ;
#59 = CARTESIAN_POINT ( 'NONE',  ( 24.99999999999999600, -25.00000000000000400, 6.730000000000000400 ) ) ;
#60 = VERTEX_POINT ( 'NONE', #3 ) ;
#61 = AXIS2_PLACEMENT_3D ( 'NONE', #76, #246, #225 ) ;
#62 = PERSON_AND_ORGANIZATION ( #287, #251 ) ;
#63 = ORIENTED_EDGE ( 'NONE', *, *, #33, .F. ) ;
#64 =( NAMED_UNIT ( * ) SI_UNIT ( $, .STERADIAN. ) SOLID_ANGLE_UNIT ( ) );
#65 = CARTESIAN_POINT ( 'NONE',  ( 24.99999999999999600, -25.00000000000000400, 0.0000000000000000000 ) ) ;
#66 = DIRECTION ( 'NONE',  ( 1.000000000000000000, 0.0000000000000000000, 0.0000000000000000000 ) ) ;
#67 = EDGE_LOOP ( 'NONE', ( #270, #63, #278, #148 ) ) ;
#68 = VERTEX_POINT ( 'NONE', #166 ) ;
#69 = ADVANCED_FACE ( 'NONE', ( #139 ), #165, .F. ) ;
#70 = PERSON_AND_ORGANIZATION ( #287, #251 ) ;
#71 = LINE ( 'NONE', #77, #295 ) ;
#72 = ADVANCED_FACE ( 'NONE', ( #252 ), #149, .F. ) ;
#73 = LINE ( 'NONE', #115, #262 ) ;
#74 = CARTESIAN_POINT ( 'NONE',  ( -25.00000000000000400, -25.00000000000000400, 6.730000000000000400 ) ) ;
#75 = CIRCLE ( 'NONE', #310, 4.500000000000000900 ) ;
#76 = CARTESIAN_POINT ( 'NONE',  ( -25.00000000000000400, 24.99999999999999600, 6.730000000000000400 ) ) ;
#77 = CARTESIAN_POINT ( 'NONE',  ( 4.499999999999986700, -6.387802844290919400E-015, 6.730000000000000400 ) ) ;
#78 = PERSON_AND_ORGANIZATION ( #287, #251 ) ;
#79 = FACE_OUTER_BOUND ( 'NONE', #24, .T. ) ;
#80 = EDGE_LOOP ( 'NONE', ( #304, #55, #172, #112 ) ) ;
#81 = PLANE ( 'NONE',  #103 ) ;
#82 = ORIENTED_EDGE ( 'NONE', *, *, #296, .F. ) ;
#83 = DIRECTION ( 'NONE',  ( 0.0000000000000000000, 0.0000000000000000000, 1.000000000000000000 ) ) ;
#84 = SECURITY_CLASSIFICATION ( '', '', #111 ) ;
#85 = MECHANICAL_CONTEXT ( 'NONE', #134, 'mechanical' ) ;
#86 = DIRECTION ( 'NONE',  ( 0.0000000000000000000, -0.0000000000000000000, 1.000000000000000000 ) ) ;
#87 = VECTOR ( 'NONE', #279, 1000.000000000000000 ) ;
#88 = ORIENTED_EDGE ( 'NONE', *, *, #140, .F. ) ;
#89 = COORDINATED_UNIVERSAL_TIME_OFFSET ( 6, 0, .BEHIND. ) ;
#90 = EDGE_CURVE ( 'NONE', #209, #27, #73, .T. ) ;
#91 = ADVANCED_FACE ( 'NONE', ( #303 ), #8, .F. ) ;
#92 = LOCAL_TIME ( 10, 6, 33.00000000000000000, #96 ) ;
#93 = ORIENTED_EDGE ( 'NONE', *, *, #212, .F. ) ;
#94 = CARTESIAN_POINT ( 'NONE',  ( 24.99999999999999600, -25.00000000000000400, 6.730000000000000400 ) ) ;
#95 = CARTESIAN_POINT ( 'NONE',  ( 24.99999999999999600, 24.99999999999999600, 0.0000000000000000000 ) ) ;
#96 = COORDINATED_UNIVERSAL_TIME_OFFSET ( 6, 0, .BEHIND. ) ;
#97 = EDGE_LOOP ( 'NONE', ( #152, #184, #57, #82 ) ) ;
#98 = APPROVAL ( #217, 'UNSPECIFIED' ) ;
#99 = COORDINATED_UNIVERSAL_TIME_OFFSET ( 6, 0, .BEHIND. ) ;
#100 = DIRECTION ( 'NONE',  ( -1.000000000000000000, 0.0000000000000000000, -0.0000000000000000000 ) ) ;
#101 = ADVANCED_BREP_SHAPE_REPRESENTATION ( '91128A311_Black-Oxide Steel Square Washer', ( #182, #146 ), #37 ) ;
#102 = CARTESIAN_POINT ( 'NONE',  ( 0.0000000000000000000, 0.0000000000000000000, 0.0000000000000000000 ) ) ;
#103 = AXIS2_PLACEMENT_3D ( 'NONE', #196, #271, #100 ) ;
#104 = DIRECTION ( 'NONE',  ( 0.0000000000000000000, 1.000000000000000000, 0.0000000000000000000 ) ) ;
#105 = PERSON_AND_ORGANIZATION ( #287, #251 ) ;
#106 = FACE_OUTER_BOUND ( 'NONE', #221, .T. ) ;
#107 = APPROVAL_STATUS ( 'not_yet_approved' ) ;
#108 = ORIENTED_EDGE ( 'NONE', *, *, #290, .F. ) ;
#109 = DIRECTION ( 'NONE',  ( 1.000000000000000000, 0.0000000000000000000, 0.0000000000000000000 ) ) ;
#110 = ADVANCED_FACE ( 'NONE', ( #198, #10 ), #81, .F. ) ;
#111 = SECURITY_CLASSIFICATION_LEVEL ( 'unclassified' ) ;
#112 = ORIENTED_EDGE ( 'NONE', *, *, #212, .T. ) ;
#113 = LINE ( 'NONE', #210, #167 ) ;
#114 = VECTOR ( 'NONE', #15, 1000.000000000000000 ) ;
#115 = CARTESIAN_POINT ( 'NONE',  ( 24.99999999999999600, -25.00000000000000400, 6.730000000000000400 ) ) ;
#116 = AXIS2_PLACEMENT_3D ( 'NONE', #194, #168, #220 ) ;
#117 = DIRECTION ( 'NONE',  ( 0.0000000000000000000, 0.0000000000000000000, -1.000000000000000000 ) ) ;
#118 = VERTEX_POINT ( 'NONE', #164 ) ;
#119 = VERTEX_POINT ( 'NONE', #128 ) ;
#120 = AXIS2_PLACEMENT_3D ( 'NONE', #135, #47, #66 ) ;
#121 = VECTOR ( 'NONE', #43, 1000.000000000000000 ) ;
#122 = CC_DESIGN_PERSON_AND_ORGANIZATION_ASSIGNMENT ( #62, #133, ( #9 ) ) ;
#123 = CARTESIAN_POINT ( 'NONE',  ( -1.387778780781445700E-014, -6.938893903907228400E-015, 0.0000000000000000000 ) ) ;
#124 = EDGE_CURVE ( 'NONE', #131, #60, #179, .T. ) ;
#125 = ORIENTED_EDGE ( 'NONE', *, *, #223, .F. ) ;
#126 = VERTEX_POINT ( 'NONE', #38 ) ;
#127 = DIRECTION ( 'NONE',  ( -1.000000000000000000, -0.0000000000000000000, -0.0000000000000000000 ) ) ;
#128 = CARTESIAN_POINT ( 'NONE',  ( -25.00000000000000400, 24.99999999999999600, 0.0000000000000000000 ) ) ;
#129 = VECTOR ( 'NONE', #254, 1000.000000000000000 ) ;
#130 = PERSON_AND_ORGANIZATION_ROLE ( 'design_owner' ) ;
#131 = VERTEX_POINT ( 'NONE', #173 ) ;
#132 = CARTESIAN_POINT ( 'NONE',  ( -25.00000000000000400, -25.00000000000000400, 6.730000000000000400 ) ) ;
#133 = PERSON_AND_ORGANIZATION_ROLE ( 'creator' ) ;
#134 = APPLICATION_CONTEXT ( 'configuration controlled 3d designs of mechanical parts and assemblies' ) ;
#135 = CARTESIAN_POINT ( 'NONE',  ( -1.387778780781445700E-014, -6.938893903907228400E-015, 6.730000000000000400 ) ) ;
#136 = EDGE_LOOP ( 'NONE', ( #234, #108, #192, #211 ) ) ;
#137 = CC_DESIGN_SECURITY_CLASSIFICATION ( #84, ( #300 ) ) ;
#138 = LOCAL_TIME ( 10, 6, 33.00000000000000000, #89 ) ;
#139 = FACE_OUTER_BOUND ( 'NONE', #203, .T. ) ;
#140 = EDGE_CURVE ( 'NONE', #126, #119, #238, .T. ) ;
#141 = CC_DESIGN_PERSON_AND_ORGANIZATION_ASSIGNMENT ( #78, #288, ( #300 ) ) ;
#142 = CARTESIAN_POINT ( 'NONE',  ( -25.00000000000000400, -25.00000000000000400, 0.0000000000000000000 ) ) ;
#143 = CALENDAR_DATE ( 2021, 9, 9 ) ;
#144 = ORIENTED_EDGE ( 'NONE', *, *, #124, .F. ) ;
#145 = DIRECTION ( 'NONE',  ( -1.000000000000000000, 0.0000000000000000000, -0.0000000000000000000 ) ) ;
#146 = AXIS2_PLACEMENT_3D ( 'NONE', #102, #202, #255 ) ;
#147 = DIRECTION ( 'NONE',  ( 0.0000000000000000000, 0.0000000000000000000, 1.000000000000000000 ) ) ;
#148 = ORIENTED_EDGE ( 'NONE', *, *, #193, .T. ) ;
#149 = CYLINDRICAL_SURFACE ( 'NONE', #116, 4.500000000000000900 ) ;
#150 = DIRECTION ( 'NONE',  ( -0.0000000000000000000, -0.0000000000000000000, -1.000000000000000000 ) ) ;
#151 = DATE_AND_TIME ( #219, #16 ) ;
#152 = ORIENTED_EDGE ( 'NONE', *, *, #223, .T. ) ;
#153 = CARTESIAN_POINT ( 'NONE',  ( -25.00000000000000400, -25.00000000000000400, 0.0000000000000000000 ) ) ;
#154 = CARTESIAN_POINT ( 'NONE',  ( -4.500000000000014200, -6.938893903907228400E-015, 6.730000000000000400 ) ) ;
#155 = AXIS2_PLACEMENT_3D ( 'NONE', #265, #191, #117 ) ;
#156 = CARTESIAN_POINT ( 'NONE',  ( 24.99999999999999600, -25.00000000000000400, 0.0000000000000000000 ) ) ;
#157 = PERSON_AND_ORGANIZATION ( #287, #251 ) ;
#158 = CARTESIAN_POINT ( 'NONE',  ( -25.00000000000000400, 24.99999999999999600, 6.730000000000000400 ) ) ;
#159 = ORIENTED_EDGE ( 'NONE', *, *, #309, .T. ) ;
#160 = DIRECTION ( 'NONE',  ( -0.0000000000000000000, -0.0000000000000000000, -1.000000000000000000 ) ) ;
#161 = DATE_AND_TIME ( #208, #311 ) ;
#162 = ORIENTED_EDGE ( 'NONE', *, *, #193, .F. ) ;
#163 = CIRCLE ( 'NONE', #120, 4.500000000000000900 ) ;
#164 = CARTESIAN_POINT ( 'NONE',  ( -25.00000000000000400, -25.00000000000000400, 6.730000000000000400 ) ) ;
#165 = PLANE ( 'NONE',  #45 ) ;
#166 = CARTESIAN_POINT ( 'NONE',  ( -4.500000000000014200, -6.938893903907228400E-015, 6.730000000000000400 ) ) ;
#167 = VECTOR ( 'NONE', #256, 1000.000000000000000 ) ;
#168 = DIRECTION ( 'NONE',  ( -0.0000000000000000000, -0.0000000000000000000, -1.000000000000000000 ) ) ;
#169 = AXIS2_PLACEMENT_3D ( 'NONE', #14, #83, #306 ) ;
#170 = PERSON_AND_ORGANIZATION ( #287, #251 ) ;
#171 = LINE ( 'NONE', #11, #36 ) ;
#172 = ORIENTED_EDGE ( 'NONE', *, *, #12, .T. ) ;
#173 = CARTESIAN_POINT ( 'NONE',  ( 4.499999999999986700, -6.387802844290919400E-015, 0.0000000000000000000 ) ) ;
#174 = ORIENTED_EDGE ( 'NONE', *, *, #236, .T. ) ;
#175 = FACE_BOUND ( 'NONE', #249, .T. ) ;
#176 = DIRECTION ( 'NONE',  ( -0.0000000000000000000, -0.0000000000000000000, -1.000000000000000000 ) ) ;
#177 = CC_DESIGN_DATE_AND_TIME_ASSIGNMENT ( #291, #305, ( #9 ) ) ;
#178 = APPROVAL_DATE_TIME ( #243, #98 ) ;
#179 = CIRCLE ( 'NONE', #17, 4.500000000000000900 ) ;
#180 = APPLICATION_PROTOCOL_DEFINITION ( 'international standard', 'config_control_design', 1994, #301 ) ;
#181 = EDGE_CURVE ( 'NONE', #264, #131, #71, .T. ) ;
#182 = MANIFOLD_SOLID_BREP ( 'Boss-Extrude1', #241 ) ;
#183 = ORIENTED_EDGE ( 'NONE', *, *, #236, .F. ) ;
#184 = ORIENTED_EDGE ( 'NONE', *, *, #181, .T. ) ;
#185 = VECTOR ( 'NONE', #176, 1000.000000000000000 ) ;
#186 = LINE ( 'NONE', #297, #224 ) ;
#187 = PRODUCT ( '91128A311_Black-Oxide Steel Square Washer', '91128A311_Black-Oxide Steel Square Washer', '', ( #85 ) ) ;
#188 = APPROVAL_ROLE ( '' ) ;
#189 = DIRECTION ( 'NONE',  ( 0.0000000000000000000, 1.000000000000000000, 0.0000000000000000000 ) ) ;
#190 = ORIENTED_EDGE ( 'NONE', *, *, #309, .F. ) ;
#191 = DIRECTION ( 'NONE',  ( 1.000000000000000000, 0.0000000000000000000, 0.0000000000000000000 ) ) ;
#192 = ORIENTED_EDGE ( 'NONE', *, *, #12, .F. ) ;
#193 = EDGE_CURVE ( 'NONE', #27, #126, #186, .T. ) ;
#194 = CARTESIAN_POINT ( 'NONE',  ( -1.387778780781445700E-014, -6.938893903907228400E-015, 6.730000000000000400 ) ) ;
#195 = EDGE_LOOP ( 'NONE', ( #7, #35, #258, #144 ) ) ;
#196 = CARTESIAN_POINT ( 'NONE',  ( 24.99999999999999600, 24.99999999999999600, 6.730000000000000400 ) ) ;
#197 = AXIS2_PLACEMENT_3D ( 'NONE', #132, #104, #86 ) ;
#198 = FACE_OUTER_BOUND ( 'NONE', #80, .T. ) ;
#199 = EDGE_LOOP ( 'NONE', ( #125, #40 ) ) ;
#200 = CARTESIAN_POINT ( 'NONE',  ( -25.00000000000000400, 24.99999999999999600, 0.0000000000000000000 ) ) ;
#201 = APPROVAL_DATE_TIME ( #161, #214 ) ;
#202 = DIRECTION ( 'NONE',  ( 0.0000000000000000000, 0.0000000000000000000, 1.000000000000000000 ) ) ;
#203 = EDGE_LOOP ( 'NONE', ( #174, #162, #231, #29 ) ) ;
#204 = PLANE ( 'NONE',  #197 ) ;
#205 = EDGE_CURVE ( 'NONE', #27, #283, #1, .T. ) ;
#206 = CARTESIAN_POINT ( 'NONE',  ( 4.499999999999986700, -6.387802844290919400E-015, 6.730000000000000400 ) ) ;
#207 = CARTESIAN_POINT ( 'NONE',  ( -1.387778780781445700E-014, -6.938893903907228400E-015, 6.730000000000000400 ) ) ;
#208 = CALENDAR_DATE ( 2021, 9, 9 ) ;
#209 = VERTEX_POINT ( 'NONE', #59 ) ;
#210 = CARTESIAN_POINT ( 'NONE',  ( -25.00000000000000400, -25.00000000000000400, 0.0000000000000000000 ) ) ;
#211 = ORIENTED_EDGE ( 'NONE', *, *, #33, .T. ) ;
#212 = EDGE_CURVE ( 'NONE', #118, #209, #171, .T. ) ;
#213 = CYLINDRICAL_SURFACE ( 'NONE', #52, 4.500000000000000900 ) ;
#214 = APPROVAL ( #26, 'UNSPECIFIED' ) ;
#215 = EDGE_CURVE ( 'NONE', #209, #273, #244, .T. ) ;
#216 = LINE ( 'NONE', #65, #87 ) ;
#217 = APPROVAL_STATUS ( 'not_yet_approved' ) ;
#218 = CARTESIAN_POINT ( 'NONE',  ( 24.99999999999999600, 24.99999999999999600, 6.730000000000000400 ) ) ;
#219 = CALENDAR_DATE ( 2021, 9, 9 ) ;
#220 = DIRECTION ( 'NONE',  ( -1.000000000000000000, 0.0000000000000000000, 0.0000000000000000000 ) ) ;
#221 = EDGE_LOOP ( 'NONE', ( #159, #19, #93, #18 ) ) ;
#222 = CC_DESIGN_PERSON_AND_ORGANIZATION_ASSIGNMENT ( #157, #130, ( #187 ) ) ;
#223 = EDGE_CURVE ( 'NONE', #68, #264, #163, .T. ) ;
#224 = VECTOR ( 'NONE', #150, 1000.000000000000000 ) ;
#225 = DIRECTION ( 'NONE',  ( 0.0000000000000000000, -0.0000000000000000000, -1.000000000000000000 ) ) ;
#226 = PERSON_AND_ORGANIZATION ( #287, #251 ) ;
#227 = VERTEX_POINT ( 'NONE', #153 ) ;
#228 = CARTESIAN_POINT ( 'NONE',  ( -25.00000000000000400, 24.99999999999999600, 6.730000000000000400 ) ) ;
#229 = CC_DESIGN_PERSON_AND_ORGANIZATION_ASSIGNMENT ( #170, #51, ( #300 ) ) ;
#230 = ORIENTED_EDGE ( 'NONE', *, *, #124, .T. ) ;
#231 = ORIENTED_EDGE ( 'NONE', *, *, #90, .F. ) ;
#232 = DIRECTION ( 'NONE',  ( -1.000000000000000000, 0.0000000000000000000, 0.0000000000000000000 ) ) ;
#233 = COORDINATED_UNIVERSAL_TIME_OFFSET ( 6, 0, .BEHIND. ) ;
#234 = ORIENTED_EDGE ( 'NONE', *, *, #58, .T. ) ;
#235 = CC_DESIGN_APPROVAL ( #25, ( #9 ) ) ;
#236 = EDGE_CURVE ( 'NONE', #273, #126, #216, .T. ) ;
#237 = APPROVAL_PERSON_ORGANIZATION ( #70, #25, #275 ) ;
#238 = LINE ( 'NONE', #200, #285 ) ;
#239 = EDGE_CURVE ( 'NONE', #264, #68, #257, .T. ) ;
#240 = FACE_OUTER_BOUND ( 'NONE', #97, .T. ) ;
#241 = CLOSED_SHELL ( 'NONE', ( #280, #110, #2, #69, #91, #20, #260, #72 ) ) ;
#242 = DESIGN_CONTEXT ( 'detailed design', #301, 'design' ) ;
#243 = DATE_AND_TIME ( #34, #138 ) ;
#244 = LINE ( 'NONE', #253, #114 ) ;
#245 = CC_DESIGN_APPROVAL ( #98, ( #84 ) ) ;
#246 = DIRECTION ( 'NONE',  ( 0.0000000000000000000, -1.000000000000000000, 0.0000000000000000000 ) ) ;
#247 = DIRECTION ( 'NONE',  ( -0.0000000000000000000, -0.0000000000000000000, -1.000000000000000000 ) ) ;
#248 = LINE ( 'NONE', #44, #129 ) ;
#249 = EDGE_LOOP ( 'NONE', ( #54, #230 ) ) ;
#250 = PRODUCT_RELATED_PRODUCT_CATEGORY ( 'detail', '', ( #187 ) ) ;
#251 = ORGANIZATION ( 'UNSPECIFIED', 'UNSPECIFIED', '' ) ;
#252 = FACE_OUTER_BOUND ( 'NONE', #195, .T. ) ;
#253 = CARTESIAN_POINT ( 'NONE',  ( 24.99999999999999600, -25.00000000000000400, 6.730000000000000400 ) ) ;
#254 = DIRECTION ( 'NONE',  ( -0.0000000000000000000, -0.0000000000000000000, -1.000000000000000000 ) ) ;
#255 = DIRECTION ( 'NONE',  ( 1.000000000000000000, 0.0000000000000000000, 0.0000000000000000000 ) ) ;
#256 = DIRECTION ( 'NONE',  ( 1.000000000000000000, 0.0000000000000000000, 0.0000000000000000000 ) ) ;
#257 = CIRCLE ( 'NONE', #169, 4.500000000000000900 ) ;
#258 = ORIENTED_EDGE ( 'NONE', *, *, #296, .T. ) ;
#259 = CC_DESIGN_PERSON_AND_ORGANIZATION_ASSIGNMENT ( #39, #307, ( #84 ) ) ;
#260 = ADVANCED_FACE ( 'NONE', ( #106 ), #204, .F. ) ;
#261 = DIRECTION ( 'NONE',  ( -0.0000000000000000000, -0.0000000000000000000, -1.000000000000000000 ) ) ;
#262 = VECTOR ( 'NONE', #189, 1000.000000000000000 ) ;
#263 = DIRECTION ( 'NONE',  ( -0.0000000000000000000, -1.000000000000000000, -0.0000000000000000000 ) ) ;
#264 = VERTEX_POINT ( 'NONE', #206 ) ;
#265 = CARTESIAN_POINT ( 'NONE',  ( -25.00000000000000400, -25.00000000000000400, 6.730000000000000400 ) ) ;
#266 = PLANE ( 'NONE',  #155 ) ;
#267 = LINE ( 'NONE', #28, #50 ) ;
#268 = DATE_AND_TIME ( #143, #92 ) ;
#269 = ORIENTED_EDGE ( 'NONE', *, *, #58, .F. ) ;
#270 = ORIENTED_EDGE ( 'NONE', *, *, #140, .T. ) ;
#271 = DIRECTION ( 'NONE',  ( 0.0000000000000000000, 0.0000000000000000000, -1.000000000000000000 ) ) ;
#272 = DIRECTION ( 'NONE',  ( 0.0000000000000000000, 0.0000000000000000000, 1.000000000000000000 ) ) ;
#273 = VERTEX_POINT ( 'NONE', #156 ) ;
#274 =( LENGTH_UNIT ( ) NAMED_UNIT ( * ) SI_UNIT ( .MILLI., .METRE. ) );
#275 = APPROVAL_ROLE ( '' ) ;
#276 = LINE ( 'NONE', #74, #56 ) ;
#277 =( NAMED_UNIT ( * ) PLANE_ANGLE_UNIT ( ) SI_UNIT ( $, .RADIAN. ) );
#278 = ORIENTED_EDGE ( 'NONE', *, *, #205, .F. ) ;
#279 = DIRECTION ( 'NONE',  ( 0.0000000000000000000, 1.000000000000000000, 0.0000000000000000000 ) ) ;
#280 = ADVANCED_FACE ( 'NONE', ( #240 ), #213, .F. ) ;
#281 = DATE_TIME_ROLE ( 'classification_date' ) ;
#282 = APPROVAL_PERSON_ORGANIZATION ( #226, #214, #188 ) ;
#283 = VERTEX_POINT ( 'NONE', #228 ) ;
#284 = DIRECTION ( 'NONE',  ( 1.000000000000000000, 0.0000000000000000000, 0.0000000000000000000 ) ) ;
#285 = VECTOR ( 'NONE', #127, 1000.000000000000000 ) ;
#286 = DIRECTION ( 'NONE',  ( 0.0000000000000000000, 0.0000000000000000000, -1.000000000000000000 ) ) ;
#287 = PERSON ( 'UNSPECIFIED', 'UNSPECIFIED', 'UNSPECIFIED', ('UNSPECIFIED'), ('UNSPECIFIED'), ('UNSPECIFIED') ) ;
#288 = PERSON_AND_ORGANIZATION_ROLE ( 'creator' ) ;
#289 = DIRECTION ( 'NONE',  ( -1.000000000000000000, 0.0000000000000000000, 0.0000000000000000000 ) ) ;
#290 = EDGE_CURVE ( 'NONE', #118, #227, #248, .T. ) ;
#291 = DATE_AND_TIME ( #302, #48 ) ;
#292 = AXIS2_PLACEMENT_3D ( 'NONE', #95, #286, #145 ) ;
#293 = SHAPE_DEFINITION_REPRESENTATION ( #22, #101 ) ;
#294 = UNCERTAINTY_MEASURE_WITH_UNIT (LENGTH_MEASURE( 1.000000000000000100E-005 ), #274, 'distance_accuracy_value', 'NONE');
#295 = VECTOR ( 'NONE', #247, 1000.000000000000000 ) ;
#296 = EDGE_CURVE ( 'NONE', #68, #60, #23, .T. ) ;
#297 = CARTESIAN_POINT ( 'NONE',  ( 24.99999999999999600, 24.99999999999999600, 6.730000000000000400 ) ) ;
#298 = APPROVAL_PERSON_ORGANIZATION ( #105, #98, #21 ) ;
#299 = DIRECTION ( 'NONE',  ( 1.000000000000000000, 0.0000000000000000000, 0.0000000000000000000 ) ) ;
#300 = PRODUCT_DEFINITION_FORMATION_WITH_SPECIFIED_SOURCE ( 'ANY', '', #187, .NOT_KNOWN. ) ;
#301 = APPLICATION_CONTEXT ( 'configuration controlled 3d designs of mechanical parts and assemblies' ) ;
#302 = CALENDAR_DATE ( 2021, 9, 9 ) ;
#303 = FACE_OUTER_BOUND ( 'NONE', #67, .T. ) ;
#304 = ORIENTED_EDGE ( 'NONE', *, *, #90, .T. ) ;
#305 = DATE_TIME_ROLE ( 'creation_date' ) ;
#306 = DIRECTION ( 'NONE',  ( 1.000000000000000000, 0.0000000000000000000, 0.0000000000000000000 ) ) ;
#307 = PERSON_AND_ORGANIZATION_ROLE ( 'classification_officer' ) ;
#308 = FACE_OUTER_BOUND ( 'NONE', #136, .T. ) ;
#309 = EDGE_CURVE ( 'NONE', #227, #273, #113, .T. ) ;
#310 = AXIS2_PLACEMENT_3D ( 'NONE', #31, #53, #284 ) ;
#311 = LOCAL_TIME ( 10, 6, 33.00000000000000000, #6 ) ;
ENDSEC;
END-ISO-10303-21;
