ISO-10303-21;
HEADER;
FILE_DESCRIPTION (( 'STEP AP203' ),
    '1' );
FILE_NAME ('M8LGW-0.STEP',
    '2021-12-10T15:08:11',
    ( '' ),
    ( '' ),
    'SwSTEP 2.0',
    'SolidWorks 2021',
    '' );
FILE_SCHEMA (( 'CONFIG_CONTROL_DESIGN' ));
ENDSEC;

DATA;
#1 = PERSON_AND_ORGANIZATION_ROLE ( 'creator' ) ;
#2 = CARTESIAN_POINT ( 'NONE',  ( 0.000000000000000000, 0.000000000000000000, 1.984375000000000000 ) ) ;
#3 = DIRECTION ( 'NONE',  ( 1.000000000000000000, 0.000000000000000000, 0.000000000000000000 ) ) ;
#4 = DIRECTION ( 'NONE',  ( 0.000000000000000000, 0.000000000000000000, 1.000000000000000000 ) ) ;
#5 = ADVANCED_FACE ( 'NONE', ( #25 ), #189, .T. ) ;
#6 =( LENGTH_UNIT ( ) NAMED_UNIT ( * ) SI_UNIT ( .MILLI., .METRE. ) );
#7 = VERTEX_POINT ( 'NONE', #150 ) ;
#8 = AXIS2_PLACEMENT_3D ( 'NONE', #241, #142, #68 ) ;
#9 = EDGE_LOOP ( 'NONE', ( #179, #13, #112, #99 ) ) ;
#10 = AXIS2_PLACEMENT_3D ( 'NONE', #247, #248, #74 ) ;
#11 = FACE_OUTER_BOUND ( 'NONE', #22, .T. ) ;
#12 = PERSON ( 'UNSPECIFIED', 'UNSPECIFIED', 'UNSPECIFIED', ('UNSPECIFIED'), ('UNSPECIFIED'), ('UNSPECIFIED') ) ;
#13 = ORIENTED_EDGE ( 'NONE', *, *, #76, .T. ) ;
#14 = CARTESIAN_POINT ( 'NONE',  ( 4.762500000000000178, -5.832380380939270108E-16, 0.000000000000000000 ) ) ;
#15 = CYLINDRICAL_SURFACE ( 'NONE', #226, 4.762500000000000178 ) ;
#16 = FACE_OUTER_BOUND ( 'NONE', #33, .T. ) ;
#17 = EDGE_LOOP ( 'NONE', ( #21, #26, #23, #27 ) ) ;
#18 = DIRECTION ( 'NONE',  ( -1.000000000000000000, 0.000000000000000000, 0.000000000000000000 ) ) ;
#19 = ORIENTED_EDGE ( 'NONE', *, *, #88, .F. ) ;
#20 = CARTESIAN_POINT ( 'NONE',  ( -11.11250000000000071, 0.000000000000000000, 1.984375000000000000 ) ) ;
#21 = ORIENTED_EDGE ( 'NONE', *, *, #76, .F. ) ;
#22 = EDGE_LOOP ( 'NONE', ( #193, #100 ) ) ;
#23 = ORIENTED_EDGE ( 'NONE', *, *, #220, .T. ) ;
#24 = CARTESIAN_POINT ( 'NONE',  ( 11.11250000000000071, -1.360888755552496424E-15, 0.000000000000000000 ) ) ;
#25 = FACE_OUTER_BOUND ( 'NONE', #9, .T. ) ;
#26 = ORIENTED_EDGE ( 'NONE', *, *, #162, .T. ) ;
#27 = ORIENTED_EDGE ( 'NONE', *, *, #60, .F. ) ;
#28 = ORIENTED_EDGE ( 'NONE', *, *, #139, .T. ) ;
#29 = VECTOR ( 'NONE', #243, 1000.000000000000000 ) ;
#30 = ORIENTED_EDGE ( 'NONE', *, *, #67, .T. ) ;
#31 = CIRCLE ( 'NONE', #222, 11.11250000000000071 ) ;
#32 = VERTEX_POINT ( 'NONE', #24 ) ;
#33 = EDGE_LOOP ( 'NONE', ( #104, #28, #94, #183 ) ) ;
#34 = APPROVAL_DATE_TIME ( #205, #159 ) ;
#35 = SECURITY_CLASSIFICATION ( '', '', #89 ) ;
#36 = VECTOR ( 'NONE', #81, 1000.000000000000000 ) ;
#37 = DIRECTION ( 'NONE',  ( -1.000000000000000000, 0.000000000000000000, 0.000000000000000000 ) ) ;
#38 = COORDINATED_UNIVERSAL_TIME_OFFSET ( 5, 0, .BEHIND. ) ;
#39 = PERSON_AND_ORGANIZATION ( #12, #134 ) ;
#40 = APPROVAL_PERSON_ORGANIZATION ( #210, #156, #203 ) ;
#41 = FACE_OUTER_BOUND ( 'NONE', #93, .T. ) ;
#42 = CALENDAR_DATE ( 2021, 10, 12 ) ;
#43 = PRODUCT_RELATED_PRODUCT_CATEGORY ( 'detail', '', ( #69 ) ) ;
#44 = DATE_AND_TIME ( #119, #118 ) ;
#45 = AXIS2_PLACEMENT_3D ( 'NONE', #155, #50, #143 ) ;
#46 = APPROVAL_PERSON_ORGANIZATION ( #49, #159, #86 ) ;
#47 = PERSON_AND_ORGANIZATION ( #12, #134 ) ;
#48 = LINE ( 'NONE', #227, #36 ) ;
#49 = PERSON_AND_ORGANIZATION ( #12, #134 ) ;
#50 = DIRECTION ( 'NONE',  ( 0.000000000000000000, 0.000000000000000000, -1.000000000000000000 ) ) ;
#51 = COORDINATED_UNIVERSAL_TIME_OFFSET ( 5, 0, .BEHIND. ) ;
#52 = MECHANICAL_CONTEXT ( 'NONE', #235, 'mechanical' ) ;
#53 = DIRECTION ( 'NONE',  ( -1.000000000000000000, 0.000000000000000000, 0.000000000000000000 ) ) ;
#54 = PERSON_AND_ORGANIZATION ( #12, #134 ) ;
#55 = DIRECTION ( 'NONE',  ( 0.000000000000000000, 0.000000000000000000, 1.000000000000000000 ) ) ;
#56 =( GEOMETRIC_REPRESENTATION_CONTEXT ( 3 ) GLOBAL_UNCERTAINTY_ASSIGNED_CONTEXT ( ( #225 ) ) GLOBAL_UNIT_ASSIGNED_CONTEXT ( ( #6, #57, #151 ) ) REPRESENTATION_CONTEXT ( 'NONE', 'WORKASPACE' ) );
#57 =( NAMED_UNIT ( * ) PLANE_ANGLE_UNIT ( ) SI_UNIT ( $, .RADIAN. ) );
#58 = CARTESIAN_POINT ( 'NONE',  ( 0.000000000000000000, 0.000000000000000000, 1.984375000000000000 ) ) ;
#59 = CC_DESIGN_DATE_AND_TIME_ASSIGNMENT ( #217, #145, ( #35 ) ) ;
#60 = EDGE_CURVE ( 'NONE', #178, #188, #31, .T. ) ;
#61 = ADVANCED_FACE ( 'NONE', ( #16 ), #15, .F. ) ;
#62 = CARTESIAN_POINT ( 'NONE',  ( 0.000000000000000000, 0.000000000000000000, 1.984375000000000000 ) ) ;
#63 = CC_DESIGN_PERSON_AND_ORGANIZATION_ASSIGNMENT ( #39, #121, ( #176 ) ) ;
#64 = CALENDAR_DATE ( 2021, 10, 12 ) ;
#65 = AXIS2_PLACEMENT_3D ( 'NONE', #58, #122, #245 ) ;
#66 = DIRECTION ( 'NONE',  ( 0.000000000000000000, 0.000000000000000000, 1.000000000000000000 ) ) ;
#67 = EDGE_CURVE ( 'NONE', #188, #178, #113, .T. ) ;
#68 = DIRECTION ( 'NONE',  ( 1.000000000000000000, 0.000000000000000000, 0.000000000000000000 ) ) ;
#69 = PRODUCT ( 'M8LGW-0', 'M8LGW-0', '', ( #52 ) ) ;
#70 = APPLICATION_CONTEXT ( 'configuration controlled 3d designs of mechanical parts and assemblies' ) ;
#71 = CARTESIAN_POINT ( 'NONE',  ( -4.762500000000000178, 0.000000000000000000, 1.984375000000000000 ) ) ;
#72 = PLANE ( 'NONE',  #65 ) ;
#73 = CARTESIAN_POINT ( 'NONE',  ( 0.000000000000000000, 0.000000000000000000, 0.000000000000000000 ) ) ;
#74 = DIRECTION ( 'NONE',  ( -1.000000000000000000, 0.000000000000000000, 0.000000000000000000 ) ) ;
#75 = ADVANCED_FACE ( 'NONE', ( #98, #11 ), #158, .F. ) ;
#76 = EDGE_CURVE ( 'NONE', #32, #178, #199, .T. ) ;
#77 = AXIS2_PLACEMENT_3D ( 'NONE', #2, #234, #53 ) ;
#78 = CARTESIAN_POINT ( 'NONE',  ( 11.11250000000000071, -1.360888755552496424E-15, 0.000000000000000000 ) ) ;
#79 = CC_DESIGN_SECURITY_CLASSIFICATION ( #35, ( #176 ) ) ;
#80 = APPLICATION_PROTOCOL_DEFINITION ( 'international standard', 'config_control_design', 1994, #235 ) ;
#81 = DIRECTION ( 'NONE',  ( 0.000000000000000000, 0.000000000000000000, 1.000000000000000000 ) ) ;
#82 = DIRECTION ( 'NONE',  ( 0.000000000000000000, 0.000000000000000000, 1.000000000000000000 ) ) ;
#83 = ADVANCED_FACE ( 'NONE', ( #107 ), #110, .F. ) ;
#84 = CC_DESIGN_PERSON_AND_ORGANIZATION_ASSIGNMENT ( #120, #1, ( #167 ) ) ;
#85 = AXIS2_PLACEMENT_3D ( 'NONE', #180, #101, #37 ) ;
#86 = APPROVAL_ROLE ( '' ) ;
#87 = DIRECTION ( 'NONE',  ( -1.000000000000000000, 0.000000000000000000, 0.000000000000000000 ) ) ;
#88 = EDGE_CURVE ( 'NONE', #102, #7, #200, .T. ) ;
#89 = SECURITY_CLASSIFICATION_LEVEL ( 'unclassified' ) ;
#90 = CARTESIAN_POINT ( 'NONE',  ( 0.000000000000000000, 0.000000000000000000, 0.000000000000000000 ) ) ;
#91 = CARTESIAN_POINT ( 'NONE',  ( 11.11250000000000071, -1.360888755552496424E-15, 1.984375000000000000 ) ) ;
#92 = LINE ( 'NONE', #14, #95 ) ;
#93 = EDGE_LOOP ( 'NONE', ( #30, #195 ) ) ;
#94 = ORIENTED_EDGE ( 'NONE', *, *, #186, .F. ) ;
#95 = VECTOR ( 'NONE', #55, 1000.000000000000000 ) ;
#96 = ORIENTED_EDGE ( 'NONE', *, *, #154, .T. ) ;
#97 = ORIENTED_EDGE ( 'NONE', *, *, #229, .T. ) ;
#98 = FACE_BOUND ( 'NONE', #187, .T. ) ;
#99 = ORIENTED_EDGE ( 'NONE', *, *, #220, .F. ) ;
#100 = ORIENTED_EDGE ( 'NONE', *, *, #162, .F. ) ;
#101 = DIRECTION ( 'NONE',  ( 0.000000000000000000, 0.000000000000000000, 1.000000000000000000 ) ) ;
#102 = VERTEX_POINT ( 'NONE', #232 ) ;
#103 = CLOSED_SHELL ( 'NONE', ( #61, #5, #75, #201, #238, #83 ) ) ;
#104 = ORIENTED_EDGE ( 'NONE', *, *, #88, .T. ) ;
#105 = AXIS2_PLACEMENT_3D ( 'NONE', #126, #236, #204 ) ;
#106 = ORIENTED_EDGE ( 'NONE', *, *, #244, .T. ) ;
#107 = FACE_OUTER_BOUND ( 'NONE', #111, .T. ) ;
#108 = VERTEX_POINT ( 'NONE', #240 ) ;
#109 = ORIENTED_EDGE ( 'NONE', *, *, #186, .T. ) ;
#110 = CYLINDRICAL_SURFACE ( 'NONE', #85, 4.762500000000000178 ) ;
#111 = EDGE_LOOP ( 'NONE', ( #196, #106, #96, #181 ) ) ;
#112 = ORIENTED_EDGE ( 'NONE', *, *, #67, .F. ) ;
#113 = CIRCLE ( 'NONE', #77, 11.11250000000000071 ) ;
#114 = APPLICATION_PROTOCOL_DEFINITION ( 'international standard', 'config_control_design', 1994, #70 ) ;
#115 = DIRECTION ( 'NONE',  ( -1.000000000000000000, 0.000000000000000000, 0.000000000000000000 ) ) ;
#116 = FACE_OUTER_BOUND ( 'NONE', #17, .T. ) ;
#117 = LOCAL_TIME ( 10, 8, 11.00000000000000000, #128 ) ;
#118 = LOCAL_TIME ( 10, 8, 11.00000000000000000, #38 ) ;
#119 = CALENDAR_DATE ( 2021, 10, 12 ) ;
#120 = PERSON_AND_ORGANIZATION ( #12, #134 ) ;
#121 = PERSON_AND_ORGANIZATION_ROLE ( 'design_supplier' ) ;
#122 = DIRECTION ( 'NONE',  ( 0.000000000000000000, 0.000000000000000000, 1.000000000000000000 ) ) ;
#123 = COORDINATED_UNIVERSAL_TIME_OFFSET ( 5, 0, .BEHIND. ) ;
#124 = CIRCLE ( 'NONE', #105, 11.11250000000000071 ) ;
#125 = CALENDAR_DATE ( 2021, 10, 12 ) ;
#126 = CARTESIAN_POINT ( 'NONE',  ( 0.000000000000000000, 0.000000000000000000, 0.000000000000000000 ) ) ;
#127 = APPROVAL_PERSON_ORGANIZATION ( #47, #153, #191 ) ;
#128 = COORDINATED_UNIVERSAL_TIME_OFFSET ( 5, 0, .BEHIND. ) ;
#129 = DIRECTION ( 'NONE',  ( 0.000000000000000000, 0.000000000000000000, 1.000000000000000000 ) ) ;
#130 = CIRCLE ( 'NONE', #133, 11.11250000000000071 ) ;
#131 = CARTESIAN_POINT ( 'NONE',  ( -4.762500000000000178, 0.000000000000000000, 0.000000000000000000 ) ) ;
#132 = CALENDAR_DATE ( 2021, 10, 12 ) ;
#133 = AXIS2_PLACEMENT_3D ( 'NONE', #174, #4, #198 ) ;
#134 = ORGANIZATION ( 'UNSPECIFIED', 'UNSPECIFIED', '' ) ;
#135 = LOCAL_TIME ( 10, 8, 11.00000000000000000, #218 ) ;
#136 = CC_DESIGN_APPROVAL ( #159, ( #167 ) ) ;
#137 = SHAPE_DEFINITION_REPRESENTATION ( #177, #231 ) ;
#138 = CC_DESIGN_PERSON_AND_ORGANIZATION_ASSIGNMENT ( #221, #170, ( #176 ) ) ;
#139 = EDGE_CURVE ( 'NONE', #7, #192, #92, .T. ) ;
#140 = APPROVAL_DATE_TIME ( #228, #153 ) ;
#141 = DIRECTION ( 'NONE',  ( 0.000000000000000000, 0.000000000000000000, 1.000000000000000000 ) ) ;
#142 = DIRECTION ( 'NONE',  ( 0.000000000000000000, 0.000000000000000000, 1.000000000000000000 ) ) ;
#143 = DIRECTION ( 'NONE',  ( -1.000000000000000000, 0.000000000000000000, 0.000000000000000000 ) ) ;
#144 = DIRECTION ( 'NONE',  ( 0.000000000000000000, 0.000000000000000000, 1.000000000000000000 ) ) ;
#145 = DATE_TIME_ROLE ( 'classification_date' ) ;
#146 = CARTESIAN_POINT ( 'NONE',  ( 0.000000000000000000, 0.000000000000000000, 1.984375000000000000 ) ) ;
#147 = CC_DESIGN_PERSON_AND_ORGANIZATION_ASSIGNMENT ( #213, #171, ( #35 ) ) ;
#148 = AXIS2_PLACEMENT_3D ( 'NONE', #73, #129, #18 ) ;
#149 = CARTESIAN_POINT ( 'NONE',  ( 0.000000000000000000, 0.000000000000000000, 1.984375000000000000 ) ) ;
#150 = CARTESIAN_POINT ( 'NONE',  ( 4.762500000000000178, -5.832380380939270108E-16, 0.000000000000000000 ) ) ;
#151 =( NAMED_UNIT ( * ) SI_UNIT ( $, .STERADIAN. ) SOLID_ANGLE_UNIT ( ) );
#152 = AXIS2_PLACEMENT_3D ( 'NONE', #90, #163, #175 ) ;
#153 = APPROVAL ( #161, 'UNSPECIFIED' ) ;
#154 = EDGE_CURVE ( 'NONE', #102, #182, #184, .T. ) ;
#155 = CARTESIAN_POINT ( 'NONE',  ( 0.000000000000000000, 0.000000000000000000, 0.000000000000000000 ) ) ;
#156 = APPROVAL ( #164, 'UNSPECIFIED' ) ;
#157 = DESIGN_CONTEXT ( 'detailed design', #70, 'design' ) ;
#158 = PLANE ( 'NONE',  #168 ) ;
#159 = APPROVAL ( #160, 'UNSPECIFIED' ) ;
#160 = APPROVAL_STATUS ( 'not_yet_approved' ) ;
#161 = APPROVAL_STATUS ( 'not_yet_approved' ) ;
#162 = EDGE_CURVE ( 'NONE', #32, #108, #130, .T. ) ;
#163 = DIRECTION ( 'NONE',  ( 0.000000000000000000, 0.000000000000000000, 1.000000000000000000 ) ) ;
#164 = APPROVAL_STATUS ( 'not_yet_approved' ) ;
#165 = DIRECTION ( 'NONE',  ( -1.000000000000000000, 0.000000000000000000, 0.000000000000000000 ) ) ;
#166 = CC_DESIGN_DATE_AND_TIME_ASSIGNMENT ( #215, #172, ( #167 ) ) ;
#167 = PRODUCT_DEFINITION ( 'UNKNOWN', '', #176, #157 ) ;
#168 = AXIS2_PLACEMENT_3D ( 'NONE', #173, #66, #3 ) ;
#169 = EDGE_CURVE ( 'NONE', #108, #32, #124, .T. ) ;
#170 = PERSON_AND_ORGANIZATION_ROLE ( 'creator' ) ;
#171 = PERSON_AND_ORGANIZATION_ROLE ( 'classification_officer' ) ;
#172 = DATE_TIME_ROLE ( 'creation_date' ) ;
#173 = CARTESIAN_POINT ( 'NONE',  ( 0.000000000000000000, 0.000000000000000000, 0.000000000000000000 ) ) ;
#174 = CARTESIAN_POINT ( 'NONE',  ( 0.000000000000000000, 0.000000000000000000, 0.000000000000000000 ) ) ;
#175 = DIRECTION ( 'NONE',  ( -1.000000000000000000, 0.000000000000000000, 0.000000000000000000 ) ) ;
#176 = PRODUCT_DEFINITION_FORMATION_WITH_SPECIFIED_SOURCE ( 'ANY', '', #69, .NOT_KNOWN. ) ;
#177 = PRODUCT_DEFINITION_SHAPE ( 'NONE', 'NONE',  #167 ) ;
#178 = VERTEX_POINT ( 'NONE', #91 ) ;
#179 = ORIENTED_EDGE ( 'NONE', *, *, #169, .T. ) ;
#180 = CARTESIAN_POINT ( 'NONE',  ( 0.000000000000000000, 0.000000000000000000, 0.000000000000000000 ) ) ;
#181 = ORIENTED_EDGE ( 'NONE', *, *, #229, .F. ) ;
#182 = VERTEX_POINT ( 'NONE', #71 ) ;
#183 = ORIENTED_EDGE ( 'NONE', *, *, #154, .F. ) ;
#184 = LINE ( 'NONE', #131, #211 ) ;
#185 = DIRECTION ( 'NONE',  ( -1.000000000000000000, 0.000000000000000000, 0.000000000000000000 ) ) ;
#186 = EDGE_CURVE ( 'NONE', #182, #192, #216, .T. ) ;
#187 = EDGE_LOOP ( 'NONE', ( #19, #202 ) ) ;
#188 = VERTEX_POINT ( 'NONE', #20 ) ;
#189 = CYLINDRICAL_SURFACE ( 'NONE', #148, 11.11250000000000071 ) ;
#190 = EDGE_LOOP ( 'NONE', ( #109, #97 ) ) ;
#191 = APPROVAL_ROLE ( '' ) ;
#192 = VERTEX_POINT ( 'NONE', #237 ) ;
#193 = ORIENTED_EDGE ( 'NONE', *, *, #169, .F. ) ;
#194 = CC_DESIGN_APPROVAL ( #153, ( #35 ) ) ;
#195 = ORIENTED_EDGE ( 'NONE', *, *, #60, .T. ) ;
#196 = ORIENTED_EDGE ( 'NONE', *, *, #139, .F. ) ;
#197 = PERSON_AND_ORGANIZATION_ROLE ( 'design_owner' ) ;
#198 = DIRECTION ( 'NONE',  ( -1.000000000000000000, 0.000000000000000000, 0.000000000000000000 ) ) ;
#199 = LINE ( 'NONE', #78, #29 ) ;
#200 = CIRCLE ( 'NONE', #45, 4.762500000000000178 ) ;
#201 = ADVANCED_FACE ( 'NONE', ( #208, #41 ), #72, .T. ) ;
#202 = ORIENTED_EDGE ( 'NONE', *, *, #244, .F. ) ;
#203 = APPROVAL_ROLE ( '' ) ;
#204 = DIRECTION ( 'NONE',  ( -1.000000000000000000, 0.000000000000000000, 0.000000000000000000 ) ) ;
#205 = DATE_AND_TIME ( #132, #117 ) ;
#206 = LOCAL_TIME ( 10, 8, 11.00000000000000000, #51 ) ;
#207 = DIRECTION ( 'NONE',  ( 0.000000000000000000, 0.000000000000000000, -1.000000000000000000 ) ) ;
#208 = FACE_BOUND ( 'NONE', #190, .T. ) ;
#209 = MANIFOLD_SOLID_BREP ( 'Imported1', #103 ) ;
#210 = PERSON_AND_ORGANIZATION ( #12, #134 ) ;
#211 = VECTOR ( 'NONE', #82, 1000.000000000000000 ) ;
#212 = APPROVAL_DATE_TIME ( #44, #156 ) ;
#213 = PERSON_AND_ORGANIZATION ( #12, #134 ) ;
#214 = LOCAL_TIME ( 10, 8, 11.00000000000000000, #123 ) ;
#215 = DATE_AND_TIME ( #42, #206 ) ;
#216 = CIRCLE ( 'NONE', #249, 4.762500000000000178 ) ;
#217 = DATE_AND_TIME ( #125, #214 ) ;
#218 = COORDINATED_UNIVERSAL_TIME_OFFSET ( 5, 0, .BEHIND. ) ;
#219 = CYLINDRICAL_SURFACE ( 'NONE', #152, 11.11250000000000071 ) ;
#220 = EDGE_CURVE ( 'NONE', #108, #188, #48, .T. ) ;
#221 = PERSON_AND_ORGANIZATION ( #12, #134 ) ;
#222 = AXIS2_PLACEMENT_3D ( 'NONE', #62, #141, #185 ) ;
#223 = CIRCLE ( 'NONE', #233, 4.762500000000000178 ) ;
#224 = CIRCLE ( 'NONE', #10, 4.762500000000000178 ) ;
#225 = UNCERTAINTY_MEASURE_WITH_UNIT (LENGTH_MEASURE( 1.000000000000000082E-05 ), #6, 'distance_accuracy_value', 'NONE');
#226 = AXIS2_PLACEMENT_3D ( 'NONE', #242, #144, #115 ) ;
#227 = CARTESIAN_POINT ( 'NONE',  ( -11.11250000000000071, 0.000000000000000000, 0.000000000000000000 ) ) ;
#228 = DATE_AND_TIME ( #64, #135 ) ;
#229 = EDGE_CURVE ( 'NONE', #192, #182, #223, .T. ) ;
#230 = DIRECTION ( 'NONE',  ( 0.000000000000000000, 0.000000000000000000, -1.000000000000000000 ) ) ;
#231 = ADVANCED_BREP_SHAPE_REPRESENTATION ( 'M8LGW-0', ( #209, #8 ), #56 ) ;
#232 = CARTESIAN_POINT ( 'NONE',  ( -4.762500000000000178, 0.000000000000000000, 0.000000000000000000 ) ) ;
#233 = AXIS2_PLACEMENT_3D ( 'NONE', #146, #207, #165 ) ;
#234 = DIRECTION ( 'NONE',  ( 0.000000000000000000, 0.000000000000000000, 1.000000000000000000 ) ) ;
#235 = APPLICATION_CONTEXT ( 'configuration controlled 3d designs of mechanical parts and assemblies' ) ;
#236 = DIRECTION ( 'NONE',  ( 0.000000000000000000, 0.000000000000000000, 1.000000000000000000 ) ) ;
#237 = CARTESIAN_POINT ( 'NONE',  ( 4.762500000000000178, -5.832380380939270108E-16, 1.984375000000000000 ) ) ;
#238 = ADVANCED_FACE ( 'NONE', ( #116 ), #219, .T. ) ;
#239 = CC_DESIGN_PERSON_AND_ORGANIZATION_ASSIGNMENT ( #54, #197, ( #69 ) ) ;
#240 = CARTESIAN_POINT ( 'NONE',  ( -11.11250000000000071, 0.000000000000000000, 0.000000000000000000 ) ) ;
#241 = CARTESIAN_POINT ( 'NONE',  ( 0.000000000000000000, 0.000000000000000000, 0.000000000000000000 ) ) ;
#242 = CARTESIAN_POINT ( 'NONE',  ( 0.000000000000000000, 0.000000000000000000, 0.000000000000000000 ) ) ;
#243 = DIRECTION ( 'NONE',  ( 0.000000000000000000, 0.000000000000000000, 1.000000000000000000 ) ) ;
#244 = EDGE_CURVE ( 'NONE', #7, #102, #224, .T. ) ;
#245 = DIRECTION ( 'NONE',  ( 1.000000000000000000, 0.000000000000000000, 0.000000000000000000 ) ) ;
#246 = CC_DESIGN_APPROVAL ( #156, ( #176 ) ) ;
#247 = CARTESIAN_POINT ( 'NONE',  ( 0.000000000000000000, 0.000000000000000000, 0.000000000000000000 ) ) ;
#248 = DIRECTION ( 'NONE',  ( 0.000000000000000000, 0.000000000000000000, -1.000000000000000000 ) ) ;
#249 = AXIS2_PLACEMENT_3D ( 'NONE', #149, #230, #87 ) ;
ENDSEC;
END-ISO-10303-21;
